Guitaretab - guitar tabs
Song name
# A B C D E F G H I J K L M N O P Q R S T U V W X Y Z

Angry Samoans - Ballad Of Jerry Curlan tab

-------------------------------------------------------------------------------
                    BALLAD OF JERRY CURLAN - Angry Samoans
-------------------------------------------------------------------------------
Tabbed by: Stefan
Email: stehphyn@yahoo.com

Tuning: standard (EADGBe)

verse:
   Em              D            C             G
e|-0-------------0-2---2-3--2-2-0-0---0-------1-----1---1-1-|
B|-0-------------0-3---3------3-1-1---1-------0-----0---0-0-|
G|-0---0-0---0-0-0-2---2------2-0-0---0-----0-0---0-0---0-0-|
D|-2---2-2---2-2-0-0---0------0-2-2---2-0h2---0-----0---0-0-|
A|-2---2-2---2-2----------------3-3---3-------2-----2---2-2-|
E|-0---0-0---0-0------------------------------3-----3---3-3-|
[ Tab from: http://www.guitaretab.com/a/angry-samoans/81384.html ]
   Em              D               C               G
e|-----------------2-2-2-2-2-2-2-2---------------------------------|
B|-----------------3-3-3-3-3-3-3-3-1-1-1-1-1-1-1-1-----------------|
G|-0-0-0-0-0-0-0-0-2-2-2-2-2-2-2-2-0-0-0-0-0-0-0-0-0-0-0-0-0-0-0-0-|
D|-2-2-2-2-2-2-2-2-0-0-0-0-0-0-0-0-2-2-2-2-2-2-2-2-0-0-0-0-0-0-0-0-|
A|-2-2-2-2-2-2-2-2-----------------3-3-3-3-3-3-3-3-2-2-2-2-2-2-2-2-|
E|-0-0-0-0-0-0-0-0---------------------------------3-3-3-3-3-3-3-3-|
 PM...............................................................


chorus:
e|------------------------------------------|
B|------------------------------------------|
G|------------------------------------------|
D|-4---9---7---12---11-11-11-11-11-11-11-11-|
A|-4---9---7---12---11-11-11-11-11-11-11-11-|
E|-2---7---5---10---9--9--9--9--9--9--9--9--|
Related for Ballad Of Jerry Curlan tab
Advertisement will be closed in 10 seconds