Song name
# A B C D E F G H I J K L M N O P Q R S T U V W X Y Z

Angul Ablaze - No Escape tab

-----------------------------------------------------------------|
-----------------------------------------------------------------|
-----------------------------------------------------------------|
--------9-10-9-8-------------8-7----------6-5--------------------|
-----7-----------9-7-------5-----------3-------------------------|
--0---------------------0-----------0----------------------------|

Repeat 5 Times ^

Then
-----------------------------------------------------------------|
-----------------------------------------------------------------|
-------------------10-10-10--------------------------------------|
--------------------9--9--9--------------------------------------|
-----9999999999999*----------------------------------------------|
-----7777777777777*----------------------------------------------|

Reapeat 3 Times


  -Come with me -In to the fire

-----------------------------------------------------------------|
-----------------------------------------------------------------|
-------------------10-10-10--------------------------------------|
--------------------9--9--9--------------------------------------|
-----9999999999999*----------------------------------------------|
-----7777777777777*----------------------------------------------|

-Lose your mind -And find desire
-----------------------------------------------------------------|
-----------------------------------------------------------------|
-------------------10-10-10--------------------------------------|
--------------------9--9--9--------------------------------------|
-----9999999999999*----------------------------------------------|
-----7777777777777*----------------------------------------------|


and yeah... then you got the chorus

-----------------------------------------------------------------|
-----------------------------------------------------------------|
-----------------------------------------------------------------|
-----------------------------------------------------------------|
-----9---7---5---------------------------------------------------|
-----7-0-5-0-3---0-0-0-0-0-0-0-----------------------------------|

Reapeat 3 Times

-Point of No Return -Your soul is gonna burn
-----------------------------------------------------------------|
-----------------------------------------------------------------|
-----------------------------------------------------------------|
-----------------------------------------------------------------|
--------9---7---5------------------------------------------------|
--------7-0-5-0-3---0-0-0-0-0-0-0--------------------------------|

and yeah... that's pretty much it from there except for the solo.. good luck figuring 
that out! Too metal for me to try haha
Tap to rate this tab
# A B C D E F G H I J K L M N O P Q R S T U V W X Y Z