Song name
# A B C D E F G H I J K L M N O P Q R S T U V W X Y Z

Angus And Julia Stone - The Wedding Song tab

verse
e|------------------------|-------------------------|
B|----1-----1----1-----1--|-----1-----1-----1--0----|
G|----0-----0----2-----2--|-----0-----0-----2--0----|
D|------------------------|-2-3---3-2---2-0---------|  x2
A|--3---3-2--2-0----0-----|-----------------------0-|
E|------------------------|--------------------3----|

chorus
e|------------------------|-----------------------|
B|----1-----1----0-----0--|---1-----1-------------|
G|----0-----0----0-----0--|---2-----2----0--------|
D|------------------------|-3---3-3----3---3-2-0--|    x2
A|--3---3-3---------------|-----------------------|
E|------------3----3-3----|-----------------------|
Tap to rate this tab
# A B C D E F G H I J K L M N O P Q R S T U V W X Y Z