Song name
# A B C D E F G H I J K L M N O P Q R S T U V W X Y Z

Angus And Julia Stone - Red Berries tab

standard tuning

Verse:

   C        Em       Am                Am
e|------------------------------------------------------|
b|---1--------0--------1---------0h1-----1----------0h1-|
g|-------0--------0--------2--------2--------2----------|
d|-----2--------2--------2-----2-----------2------2-----|
a|-3--------2--------0-------0---------0--------0-------|
E|------------------------------------------------------|

Chorus:

   Am       Em       C       C        F
e|----------------------------------------------------------|
b|---1--------0--------1-------1--------1-----1---1-----1---|
g|-------2--------0--------0-------0------0h2-------0h2-----|
d|-----2--------2--------2-------2----3---------3-----------|
a|-0--------2--------3-------3------------------------------|
E|----------------------------------------------------------|

   F
e|-------------------------|
b|---1-----1-----1-----1---|
g|-----0h2---0h2---0h2-----|
d|-3-----------------------|
a|-------------------------|
E|-------------------------|
Tap to rate this tab
 
# A B C D E F G H I J K L M N O P Q R S T U V W X Y Z