Song name
# A B C D E F G H I J K L M N O P Q R S T U V W X Y Z

Angus And Julia Stone - Wooden Chair tab

e|----------3----------------------------3------------------------3-----------|
B|-1--3--5-----5-----5----------1--3--5-----5-----5-------1--3--5---5----5--5-|
G|---------------0----0--0--------------------0----0--0---------------0---0---|
D|--------------------------------------------------------3--3--3-3-3---3-----|
A|-3--3--3--3--3---3----3-------3--3--3--3--3---3----3------------------------|
E|----------------------------------------------------------------------------|


e|----------3------------------------------------------|l
B|-1--3--5-----5-----5---------------------------------|l
G|---------------0----0--0-----------------------------|l
D|-----------------------------------------------------|l
A|-3--3--3--3--3---3----3------------------------------|l
E|-----------------------------------------------------|l


thats pretty much it with a few minor variations that arent too hard to pick up.

enjoy.
Tap to rate this tab
# A B C D E F G H I J K L M N O P Q R S T U V W X Y Z