Guitaretab - guitar tabs
Song name
# A B C D E F G H I J K L M N O P Q R S T U V W X Y Z

Angus And Julia Stone - A Book Like This tab

-------------------------------------------------------------------------------
			                       A BOOK LIKE THIS - Angus And Julia Stone
-------------------------------------------------------------------------------


Tabbed by:  Alex North     Heh Heh....Alright

Email: vertically_challenged000@hotmail.com


Tuning: Standard
================
..::CAPO 3rd::..
================

Verse 1:   ( Mute the strings with your plucking hand whilst playing the verses then 
during the Chorus)

     Am                F
e|-----------------------------------------------------------------------------|
B|------1-0-------1-0-----1-0-------1-0----------------------------------------|
G|---0-----0---0-------0--------0----------------------------------------------|
D|----2---------2-------3---------3--------------------------------------------|
A|-----------------------------------------------------------------------------|
E|-0---------0--------1-------1------------------------------------------------|

 Sun lights up the day time,

   G                    Am
e|---------------------------------------------------------------------------|
B|------1-0--------1-0---------1-0-----------1--0----------------------------|
G|---0-----0---0------0-----0------0-----0--------0--------------------------|
D|----0----------0-----------2-------------2---------------------------------|
A|---------------------------------------------------------------------------|
E|-3---------3-------------0-----------0-------------------------------------|

  You light up my life.


     Am                F
e|-----------------------------------------------------------------------------|
B|------1-0-------1-0-----1-0-------1-0----------------------------------------|
G|---0-----0---0-------0--------0----------------------------------------------|
D|----2---------2-------3---------3--------------------------------------------|
A|-----------------------------------------------------------------------------|
E|-0---------0--------1-------1------------------------------------------------|

 The hand that calls you forward
[ Tab from: http://www.guitaretab.com/a/angus-and-julia-stone/117007.html ]
 G                    Am
e|---------------------------------------------------------------------------|
B|------1-0--------1-0---------1-0-----------1--0----------------------------|
G|---0-----0---0------0-----0------0-----0--------0--------------------------|
D|----0----------0-----------2-------------2---------------------------------|
A|---------------------------------------------------------------------------|
E|-3---------3-------------0-----------0-------------------------------------|

is the hand that leaves me behind.

Verse 2:

Am                F
And I stand on the ocean shore ,
        G                   Am
like an old black and white movie.
Am          F
Love is here, love is lost,
G     Am
again tonight.

Chorus:        (((..::Play Twice::..)))

Am                F
e|-----------------------------------------------------------------------------|
B|------1-0-------1-0-----1-0-------1-0----------------------------------------|
G|---0-----0---0-------0--------0----------------------------------------------|
D|----2---------2-------3---------3--------------------------------------------|
A|-----------------------------------------------------------------------------|
E|-0---------0--------1-------1------------------------------------------------|

 Hold me,             hold

G                    Am
e|---------------------------------------------------------------------------|
B|------1-0--------1-0---------1-0-----------1--0----------------------------|
G|---0-----0---0------0-----0------0-----0--------0--------------------------|
D|----0----------0-----------2-------------2---------------------------------|
A|---------------------------------------------------------------------------|
E|-3---------3-------------0-----------0-------------------------------------|

  me                     tonight.

(((..::Play Twice::..)))

Verse 3:

Am          F
Youíve got a book like this,
 G         Am
to keep me alive.
Am            F
And if its not a rainy day,
G                 Am
you simply donít go outside

Am                   F
And youíre tired of everything
 G                     Am
all of the girls and the boys,
Am                    F
and if youíre tired of everything
G                  Am
all of your precious toys.


Chorus:

Am       F     G  Am
Hold me, hold me tonight
Am       F     G  Am
Hold me, hold me goodnight.


Verse 4:

Am               F
Sun lights up the daytime,
G              Am
you light up my life.
Am                    F
The hand that calls you forward
      G                     Am
is the hand, that leaves me behind.

Chorus:

Am       F     G  Am
Hold me, hold me tonight
Am       F     G  Am
Hold me, hold me goodnight.
Related for A Book Like This tab