Song name
# A B C D E F G H I J K L M N O P Q R S T U V W X Y Z

Angus And Julia Stone - Bella tab

Bella - Angus and Julia Stone
Tuning: Standard
Capo 1

I love this song. Thanks to mja05 for the previous chord version. People were getting 
on the picking, so I thought I'd tab it out :)

Strum chords downward.

Main chords:
Aadd9: 002420
A2: 000220  (unsure of that chord's name)
E: 022100
A: 002220


Intro

e|------------------------------------|
B|-0h2p0--------2--------0h2----------|:
G|-4------------3---------------------|
D|-2------2---------2-----------------|    x3
A|-0--------0---------0---------------|:
E|-0------------------------------0---|

e|-------------------------0----------|
B|-0h2p0--------2----------2----------|
G|-4------------3----------2----------|
D|-2------2---------2------0----------|
A|-0--------0---------0----0----------|
E|-0----------------------------------|


(Travis picking pattern)

   Aadd9

e|---------------|---------------|----------------|----------------|
B|--2-------2----|--2-------2----|--2h3------3----|--2-------2-----|
G|------4--------|------4--------|-------4--------|------4---------|
D|----2-------2--|----2-------2--|-----2-------2--|----2-------2---|
A|--0-----0------|--0-----0------|--0------0------|--0-----0-------|
E|---------------|---------------|----------------|----------------|


   A2
e|---------------|---------------|----------------|----------------|
B|--2-------2----|--2h3------3---|--2--------2----|--0-------0-----|
G|------2--------|-------2-------|------2---------|------2---------|
D|----0-------0--|-----0-------0-|----0--------0--|----0-------0---|
A|--0-----0------|--0------0-----|--0-----0-------|--0-----0-------|
E|---------------|---------------|----------------|----------------|


   Aadd9

e|--0------------|
B|----------2----|:
G|------4--------|   x 4
D|----2-------2--|
A|--0-----0------|:
E|---------------|


   A2
e|---------------|---------------|----------------|----------------|
B|--2-------2----|--2h3------3---|--2--------2----|--0-------0-----|
G|------2--------|-------2-------|------2---------|------2---------|
D|----0-------0--|-----0-------0-|----0--------0--|----0-------0---|
A|--0-----0------|--0------0-----|--0-----0-------|--0-----0-------|
E|---------------|---------------|----------------|----------------|


When the singing starts, it's the same chords/picking, but listen to the song for the hammer-ons.

End chorus with:
   Aadd9
e|-0-------------|
B|---------2-----|:
G|-----4---------|   x 4
D|---2-------2---|
A|-0-----0-------|:
E|---------------|

"...Can I share this dance with you"


Chorus

   E                A2                               A
e|---------------|---------------|----------------|-----------------|
B|---------------|--2-------2----|--2h3------2----|--2--------2-----|:
G|--1-------1----|------2--------|-------2--------|------2----------|   x3
D|------2--------|----0-------0--|-----0-------0--|----2--------2---|
A|----2-------0--|--0-----0------|--0------0------|--0------0-------|:
E|--0-----0------|---------------|----------------|-----------------|


   E                A2
e|---------------|---------------|----------------|--0--------------|
B|---------------|--2-------2----|--2h3------2----|----------3------|:
G|--1-------1----|------2--------|-------2--------|------2----------|
D|------2--------|----0-------0--|-----0-------0--|----0--------2---|
A|----2-------0--|--0-----0------|--0------0------|--0-----0--------|:
E|--0-----0------|---------------|----------------|-----------------|


Repeat that last bar 5 times, during "...I hope all is well.."


End the whole song by downward strumming Aadd9.


Lyrics:

Verse 1

There goes the gal
In the pretty skirt with the
Golden smile that made you feel new
Like when the marching band strolls the street
You know another years come too soon
So you took her hand and she gave a look that sent you to the moon
And there you spoke the words of a gentleman
Can I have this dance with you
Can I share this dance with you

Chorus

Won't you come on home
I built us a flying machine
And we'll go where you want
and we'll sail the seven seas
I hope all is well in daisys dreams

Verse 2

There goes the gal
Yeah the pretty bird on the golden mile that made you feel real
She took withon to the stars
She don't make no big deal
There she sits with them big old fields of daisies and rusted mills
And when the sun it shines on her hair of gold
She's beautiful
She's beautiful

Chorus

Won't you come on home
I built us a flying machine
And well go where you want well sail the seven seas
I hope all is well in daisys dreams

Da de de da da
Tap to rate this tab
# A B C D E F G H I J K L M N O P Q R S T U V W X Y Z