Song name
# A B C D E F G H I J K L M N O P Q R S T U V W X Y Z

Angus And Julia Stone - Sadder Than You tab

really easy song.


Intro/Verse
e|-------------------------------------------|
B|-------1-----1-----0----0------------------|
G|-------2-----2-----0----0------------------| 
D|-------------------------------------------|
A|----0-----0--------------------------------|
E|-----------------0----0--------------------|

Chorus
e|-------------------------------------------|
B|-------1-----1-----0----0------------------|
G|-------2-----2-----0----0------------------| 
D|-------------------------------------------|
A|-------------------------------------------|
E|----1-----1------3----3--------------------|



and thats all it is.
Tap to rate this tab
# A B C D E F G H I J K L M N O P Q R S T U V W X Y Z