Song name
# A B C D E F G H I J K L M N O P Q R S T U V W X Y Z

Angus And Julia Stone - Here We Go Again tab

I love this song to death, and I just figured out the intro this morning.
If anyone knows the chords in the background, please let me know. 
Hopefully I can figure the whole song out and post it up here soon.
Please rate and comment!

Tuning: Standard




e|---7-5-4---------------------------------------------------------|
B|---------7-5-4-----------------------------4-5h7-777/9-----------|
G|---------------6-4---------------------4-6-----------------------|
D|-------------------7-6-4-----------4-7---------------------------|
A|-------------------------7-6-4-6-7-------------------------------|
E|-----------------------------------------------------------------|


e|-----------------------------------------------------------------|
B|--9h10-7h9-5h9-4h5-4h5p4--0---9h10-7h9-5h9-4h5-4h5p4--7----------|
G|-----------------------------------------------------------------|
D|-----------------------------------------------------------------|
A|-----------------------------------------------------------------|
E|-----------------------------------------------------------------|

e|-----------------------------------------1212--1111--99--77------|
B|--77777/999999/101010101010/1212121212---------------------------|
G|-----------------------------------------------------------------|
D|-----------------------------------------------------------------|
A|-----------------------------------------------------------------|
E|-----------------------------------------------------------------|

e|--55--44---------------------------------------------------------|
B|----------77--55-------------------------------------------------|
G|------------------4-444--444h6p4---------------------------------|
D|-----------------------------------------------------------------|
A|-----------------------------------------------------------------|
E|-----------------------------------------------------------------|

Tap to rate this tab
# A B C D E F G H I J K L M N O P Q R S T U V W X Y Z