Song name
# A B C D E F G H I J K L M N O P Q R S T U V W X Y Z

Angus And Julia Stone - Here We Go Again tab

After much unintentional delay, here is the full tab of this wonderful song :)
Please comment/rate

Standard tuning, no capo.


Main Chords:

  E     Amaj7   A2
--0------0------0--|
--0------2------2--|
--1------1------1--|
--2------2------2--|
--2------0------1--|
--0------0------0--|


(Note: there isn't much need to hold the 2nd fret on the A string in the E chord, since 
hardly plays it, if at all.)

INTRO/VERSE

Guitar 1 - Julia

     E                                     Amaj7
e|------------------------------------|------------------------------------|
B|--0---------0-------0---------0-----|----2----------2--------2----------2|
G|-------1--------1-------1---------1-|---------1---------1---------1------|
D|-----2--------2-------2---------2---|-------2---------2---------2--------|
A|------------------------------------|----0-------0-----------0-------0---|
E|--0------0----------0------0--------|------------------------------------|

Repeat throughout intro and verse


Guitar 2 - Angus

e|---7-5-4---------------------------------------------------------|
B|---------7-5-4------------------------------4-5h7-777/9----------|
G|---------------6-4----------------------4-6----------------------|
D|-------------------7-6-4-----------4-6-7-------------------------|
A|-------------------------7-6-4-6-7-------------------------------|
E|-----------------------------------------------------------------|


e|-----------------------------------------------------------------|
B|--9h10-7h9-5h7-4h5-4h5p4--0---9h10-7h9-5h7-4h5-4h5p4--7----------|
G|-----------------------------------------------------------------|
D|-----------------------------------------------------------------|
A|-----------------------------------------------------------------|
E|-----------------------------------------------------------------|

e|-----------------------------------------1212--1111--99--77------|
B|--77777/999999/101010101010/1212121212---------------------------|
G|-----------------------------------------------------------------|
D|-----------------------------------------------------------------|
A|-----------------------------------------------------------------|
E|-----------------------------------------------------------------|

e|--55--44---------------------------------------------------------|
B|----------77--55-------------------------------------------------|
G|------------------4-444--444h6p4---------------------------------|
D|-----------------------------------------------------------------|
A|-----------------------------------------------------------------|
E|-----------------------------------------------------------------|

Listen to the song to find out where to play certain riffs. The tab is the same for them.


CHORUS

Guitar 1 - Julia

      Amaj7                             A2
e|-----------------------------------|--------------------------------------|
B|---2----------2--------2----------2|--2---------2--------2---------2------|
G|--------1---------1---------1------|-------1---------1--------1--------1--|
D|------2---------2---------2--------|-----2--------2---------2--------2----|
A|---0-------0-----------0-------0---|--1-------1----------1-------1--------|
E|-----------------------------------|--------------------------------------|

"Oohh...Here we go again..."

Repeat throughout

Guitar 2 - Angus

[Same tab as Intro/Verse]


INTERLUDE

Guitar 1 - Julia

I'm just posting this as a bass line. Listen to the song carefully for the timing.


e|-------------------------|----------------------|
B|-------------------------|----------------------|
G|-------------------------|----------------------|
D|------1--------2---------|----------------------|
A|---------0~-----------0~-|------0~--------0~----|
E|--0~--------------0~-----|--0~-------0~---------|

Repeat the second bar throughout.

Guitar 2 - Angus

e|------------------------------------------1-----------------|
B|-----4h5-4-7~----4h5-4----------4h5-4-7-------4h5-4---------|
G|------------------------6--4~-----------1-----------6--4~---|
D|------------------------------------------------------------|
A|------------------------------------------------------------|
E|------------------------------------------------------------|

e|------------------------------------------------------------|
B|------------------------------------------------2-4-5-------|
G|------------------------------------1-------1-4-------------|
D|---------------1-2---------------1--------4-----------------|
A|----------2-4----------------2-4----------------------------|
E|--0-2-4-5------------0-2-4-5--------------------------------|


e|--2-2-2-22s4-4-444--7-7-7-7---|
B|------------------------------|
G|------------------------------|
D|------------------------------|
A|------------------------------|
E|------------------------------|


End the whole song by strumming an E chord downwards.
And thats it! :)
- Maddy Hermawan
Tap to rate this tab
# A B C D E F G H I J K L M N O P Q R S T U V W X Y Z