Song name
# A B C D E F G H I J K L M N O P Q R S T U V W X Y Z

Angus And Julia Stone - The Devils Tears tab

Song - The Devil's Tears
Artist - Angus and Julia Stone
Album - Down The Way

Capo 1st fret
 
      Em              C              G                D

|-----2h3------3--------------------------------------0h2-------2----------|
|----0------0------0--3-------3------0-------0--------------3------3-------|
|---0-----0------0--------0------0-------0------0---------2------2---------|
|--2---------2----------2-------2-------0------0------0-------0------------|
|---------------------3-----3----------------------------------------------|
|------------------------------------3-----3-------------------------------|



then after each verse

      D                  D

|-----2h3-------3--------------5-------------|
|-----------3------3---------3---------------|
|---------2------2---------2-----------------|
|-----0------0-----------0-------------------|
|--------------------------------------------|
|--------------------------------------------|
Tap to rate this tab
# A B C D E F G H I J K L M N O P Q R S T U V W X Y Z