Song name
# A B C D E F G H I J K L M N O P Q R S T U V W X Y Z

Angus And Julia Stone - Yellow Brick Road tab

----------------------------------------------------------------------------
                   Yellow Brick Road - Angus & Julia Stone
----------------------------------------------------------------------------
Probably my favourite from their new album, i love it, had to work out the solo


Verse: A | B | C#m | B |


           A          B              C#m         B
Just a spoon full of sugar makes the medicine go down
           A          B              C#m         B
Sweet Mary Jane wont you lay me down
           A          B              C#m         B
lost my heat in california
A          B              C#m         B
lost my mind
           A          B               C#m         B
shot me down with a revlolver,
A          B               C#m          B
got me high
           A          B               C#m          B
then a heart of gold came on the stereo
 A          B               C#m          B
Mr Young made me cry
           A          B               C#m          B
then all the colours of the rainbow
 A          B               C#m          B
fell in my eyes


Chorus: A | C#m | B | C#m | B

 A   C#m       B          C#m      B
  I lost my mind long ago
 A   C#m       B          C#m      B
down at yellow brick road
 A   C#m       B          C#m      B
I lost my mind long ago
 A   C#m       B          C#m      B
down at yellow brick road

VERSE 2
Took a train to the river where i dove right in
that skinny dipping girl made the blue bird sing
fell in love in california,
she blew my mind
she shot me down with her revolver
she got me high
then the weather man came on the radio
said there be sunshine
then all the colours of the rainbow
fell in my mind

CHORUS
A   C#m       B          C#m      B
  I lost my mind long ago
 A   C#m       B          C#m      B
down at yellow brick road
 A   C#m       B          C#m      B
I lost my mind long ago
 A   C#m       B          C#m      B
down at yellow brick road


Solo 1
e|-----12-----9----------12-----9------------------------------------------------------|
B|----------------9----------------9---------------------------------------------------|
G|----------------------------------------9--------11-------9--------------------------|
D|-------------------------------------------------------------11----------------------|
A|-------------------------------------------------------------------------------------|
E|-------------------------------------------------------------------------------------|
                                        PM---------------------------------------------|

e|------------------------------------------------------------|
B|------------------------------------------------------------|
G|----11-----11-----9-----11-----9----------------------------|
D|--------------------------------------11--------9-----9h11--| x2
A|------------------------------------------------------------|
E|------------------------------------------------------------|
    PM--------------------------------------------------------|

Chorus

Solo 1
e|-----12-----9----------12-----9------------------------------------------------------|
B|----------------9----------------9---------------------------------------------------|
G|----------------------------------------9--------11-------9--------------------------|
D|-------------------------------------------------------------11----------------------|
A|-------------------------------------------------------------------------------------|
E|-------------------------------------------------------------------------------------|
                                        PM---------------------------------------------|

e|-----------------------------------------------------------------------------------|
B|-----------------------------------------------------------------------------------|
G|----11-----11-----9-----11-----9---------------------------------------------------|
D|--------------------------------------11--------9-----9h11-------------------------|
A|-----------------------------------------------------------------------------------|
E|-----------------------------------------------------------------------------------|

The guitarist fiddles around alot after this, just easy little licks, repeating similar 
Working on the next few solos, will add when i work them out
Tap to rate this tab
 
# A B C D E F G H I J K L M N O P Q R S T U V W X Y Z