Song name
# A B C D E F G H I J K L M N O P Q R S T U V W X Y Z

Angus And Julia Stone - Big Jet Plane tab

e|--------------------------------------------------------------------|
B|--------------------------------------------------------------------|
G|---10/13-10-13/-----------10/13-10-13/8--------10/13-10-13/---------|
D|----------------10-11-------------------11-------------------10-11--|
A|--------------------------------------------------------------------|
E|--------------------------------------------------------------------|


e|------------------------------|
B|------------------------------|
G|-10/13-10-13/8----------------|
D|---------------11-10h11-------|
A|------------------------------|
E|------------------------------|
Tap to rate this tab
# A B C D E F G H I J K L M N O P Q R S T U V W X Y Z