Song name
# A B C D E F G H I J K L M N O P Q R S T U V W X Y Z

Angus And Julia Stone - Beast tab

|------------------------------------------|
|  THE BEAST SOLO - Angus and Julia Stone  |
|------------------------------------------|
| Tabbed by: markush19         |
| Email: markush19@hotmail.com |
|------------------------------|
| Tuning: Standard             |
|------------------------------|
| Capo: 2nd fret               |
|------------------------------|

This was previously tabbed by katrinaaah, but was just slightly off.

I've also thrown in some vibratos and slides that just add a little bit to it.

Angus only does a couple on the album version but improvs a little more on some live versions.

e|------------------------------------| 
B|------------------------------------|
G|-11h12-14-12-11-12-9~--7-11~----7~\-|
D|------------------------------------|
A|------------------------------------|
E|------------------------------------|

e|------------------------------------|
B|------------------------------------|
G|-11h12-14-12-11-12-9~--7~\----------|
D|------------------------------------|
A|------------------------------------|
E|------------------------------------|

e|------------------------------------|
B|------------------------------------|
G|------------4~---6~-----------------|
D|--------4-7----7----7~\-------------|
A|----5-7-----------------------------|
E|--7---------------------------------|

e|------------------------------------|    
B|------------------------------------|    
G|------------4~---6~-----------------|       / All notes before the 7th  
D|--------4-7----7----7~--------------|   ---|  fret of the D string are
A|----5-7-----------------------------|       \ palm muted.
E|--7---------------------------------|

e|------------------------------------|
B|------------------------------------|
G|--9-9-9-9b10r9-7~-------------------|
D|------------------------------------|
A|------------------------------------|
E|------------------------------------|

e|------------------------------------|
B|------------------------------------|
G|--9-9-9-9b10r9-7~----6~--4~---------|
D|------------------------------------|
A|------------------------------------|
E|------------------------------------|

| /  slide up
| \  slide down
| h  hammer-on
| p  pull-off
| ~  vibrato
| +  harmonic
| x  Mute note
Tap to rate this tab
 
# A B C D E F G H I J K L M N O P Q R S T U V W X Y Z