Song name
# A B C D E F G H I J K L M N O P Q R S T U V W X Y Z

Angus And Julia Stone - Horse And Cart tab

HORSE AND CART - Angus and Julia Stone

I have tabbed the main guitar riff, the whistling riff, and the clarinet part.
The main guitar riff plays for the whole song.
Listen to the recording for the timing.
Chord shapes at the bottom of the tab.

The tabs are relative to the capo (1st fret)!


Capo: 1st fret


Main riff:

       Em7                    Em7
e||--------------------------------------------------|
B||-------3----3----3----3-------3----3----3----3----|
G||*------0----0----0----0-------0----0----0----0----|
D||*-------------------------------------------------|
A||--------------------------------------------------|
E||----0----------------------0----------------------|

      A                      A
e|--------------------------------------------------|
B|-------2----2----2----2-------2----2----2----2----|
G|-------2----2----2----2-------2----2----2----2----|
D|--------------------------------------------------|
A|----0----------------------0----------------------|
E|--------------------------------------------------|

      Em7                    Em7
e|--------------------------------------------------|
B|-------3----3----3----3-------3----3----3----3----|
G|-------0----0----0----0-------0----0----0----0----|
D|--------------------------------------------------|
A|--------------------------------------------------|
E|----0----------------------0----------------------|

      A                      Asus4      A2
e|--------------------------------------------------||
B|-------2----2----2----2-------3----3----0----0----||
G|-------2----2----2----2-------2----2----2----2---*||
D|-------------------------------------------------*||
A|----0----------------------0----------0-----------||
E|--------------------------------------------------||


Whistle:

e|--------------------2------------------------------|
B|----3-h5---3-h5---3---3---0--0--3--5----0--3--5----|
G|---------------------------------------------------|   x2
D|---------------------------------------------------|
A|---------------------------------------------------|
E|---------------------------------------------------|


Clarinet:

e|-------------------------------------------------------------|
B|-------------------------------------------------------------|
G|-------2--0--2----------2--0--2------------------------------|
D|----2-----------2----2-----------2----2-4-5-5-4-2-0---0-2----|
A|----------------------------------------------------4--------|
E|-------------------------------------------------------------|

e|------------------------------------------------------------|
B|------------------------------------------------------------|
G|-------2------2------2------------------------2--0--2-------|
D|----2----4-2----4-2----4----2/9----2/11----2-----------2----|
A|------------------------------------------------------------|
E|------------------------------------------------------------|

e|---------------------------|
B|----5-3-2------------------|
G|----------4-2-0------------|
D|----------------4-2-0------|
A|----------------------4----|
E|---------------------------|


************************************

  /   slide up
  h   hammer-on

************************************

Chord Shapes:

Em7: 022030

A: x02220

Asus4: x02230

A2: x02200
Tap to rate this tab
 
# A B C D E F G H I J K L M N O P Q R S T U V W X Y Z