Song name
# A B C D E F G H I J K L M N O P Q R S T U V W X Y Z

Angus And Julia Stone - Babylon tab

Song: Babylon
Artist: Angus And Julia Stone
Albym: Chocolates And Cigarettes EP

Tuning: Dropped D

verse

e|-----------------------------------------------------|
b|-----------------------------------------------------|
g|-------0-----2------0--------------------------------|
D|--2h4----0-------------4--2h4--0---------------------|
A|-----------------------------------------------------|    x2
D|--0----------0---0--------0--------------------------|

e|-----------------------------------------------------|
b|-----------------------------------------------------|
g|-----------------------------------------------------|
D|-------------4------------0-0-0-0--------------------|
A|--------5------5----------5-5-5-5--------------------|    x2
D|---4h5----5---------5-5-5-5-5-5-5--------------------|

(repeat several times)


chorus

e|-----------------------------------------------------|
b|-----------------------------------------------------|
g|-------0-----2------0--------------------------------|
D|--2h4----0-------------4--2h4--0---------------------|
A|-----------------------------------------------------|    x2
D|--0----------0---0--------0--------------------------|


            Em                G

e|-----------0----------------0------------------------|
b|-----------0----------------0------------------------|
g|-----------0----------------0------------------------|
D|-----------2----------------5------------------------|
A|-----------2----------------5------------------------|   x1
D|-----------2----------------5------------------------|


e|-----------------------------------------------------|
b|-----------------------------------------------------|
g|-------0-----2------0--------------------------------|
D|--2h4----0-------------4--2h4--0---------------------|
A|-----------------------------------------------------|    x2
D|--0----------0---0--------0--------------------------|


e|-----------0----------------0------------------------|
b|-----------0----------------0------------------------|
g|-----------0----------------0------------------------|
D|-----------2----------------5------------------------|
A|-----------2----------------5------------------------|   x1
D|-----------2----------------5------------------------|


verse
e|-----------------------------------------------------|
b|-----------------------------------------------------|
g|-------0-----2------0--------------------------------|
D|--2h4----0-------------4--2h4--0---------------------|
A|-----------------------------------------------------|    x2
D|--0----------0---0--------0--------------------------|

e|-----------------------------------------------------|
b|-----------------------------------------------------|
g|-----------------------------------------------------|
D|-------------4------------0-0-0-0--------------------|
A|--------5------5----------5-5-5-5--------------------|    x2
D|---4h5----5---------5-5-5-5-5-5-5--------------------|



Tap to rate this tab
 
# A B C D E F G H I J K L M N O P Q R S T U V W X Y Z