Song name
# A B C D E F G H I J K L M N O P Q R S T U V W X Y Z

Angus And Julia Stone - Im Not Yours tab

Capo 1st 


Intro

  Dm     F     Bb
E|-1--1--0--0--1--1--1--1--||
B|-3--3--1--1--3--3--3--3--|| 
G|-2--2--2--2--3--3--3--3--||  
D|--0--0--3--3--3--3--3--3-||
A|-------------------------||
E|-------------------------||


Verses:

  Dm     F     Bb
E|-1--1--0--0--1--1--1--1--||
B|-3--3--1--1--3--3--3--3--|| 
G|-2--2--2--2--3--3--3--3--||  
D|--0--0--3--3--3--3--3--3-||
A|-------------------------||
E|-------------------------||


Chorus:

  F            Bb     
E|-0--0--0--0--1--1--1--1--||
B|-1--1--1--1--3--3--3--3--|| 
G|-2--2--2--2--3--3--3--3--||  
D|--3--3--3--3--3--3--3--3-||
A|-------------------------||
E|-------------------------||
Tap to rate this tab
 
# A B C D E F G H I J K L M N O P Q R S T U V W X Y Z