Song name
# A B C D E F G H I J K L M N O P Q R S T U V W X Y Z

Angus And Julia Stone - Big Jet Plane tab

-------------------------------------------------------------------------------
			     Big Jet Plane - Angus and Julia Stone
-------------------------------------------------------------------------------
Tabbed by: hally_321
Email: lukehall53@yahoo.com.au

Tuning: Standard

The chords at the start of the song are muted then they are played normally then near 
the end they start getting muted again. Watch for the changes.

Intro

e|-------------------------------------------------------------------------|
B|---9----9----------9----9-----------9----9-----------9----9--------------|
G|----10----5--6------10----6--5-------10----5--6-------10---6--5--5h6-----|
D|-------------------------------------------------------------------------|
A|-------------------------------------------------------------------------|
E|-------------------------------------------------------------------------|


Intro - Chords

e|-------------------------------------------------------------------------|
B|-------------------------------------------------------------------------|
G|---6------------3--------------------------------------------------------|
D|---6------------3---------------3-------------3--------------------------|
A|---4------------1---------------3-------------3--------------------------|
E|--------------------------------1-------------1--------------------------|


Verse

e|-------------------------------------------------------------------------|
B|-------------------------------------------------------------------------|
G|---6-------------3-------------------------------------------------------|
D|---6-------------3---------------3--------------3------------------------|
A|---4-------------1---------------3--------------3------------------------|
E|---------------------------------1--------------1------------------------|


Chorus

e|-------------------------------------------------------------------------|
B|-------------------------------------------------------------------------|
G|---6-------------3-------------------------------------------------------|
D|---6-------------3----------------3---------------3----------------------|
A|---4-------------1----------------3---------------3----------------------|
E|----------------------------------1---------------1----------------------|


Then it goes to

Gonna hold ya,
Gonna kiss ya in my arms
Gonna take ya,
Away from harm

which is
e|-------------------------------------------------------------------------|
B|-------------------------------------------------------------------------|
G|-------------------------------------------------------------------------|
D|---4---------------6---------------3-----------------3-------------------|
A|---4---------------6---------------3-----------------3-------------------|
E|---2---------------4---------------1-----------------1-------------------|


Then it goes back into the chorus and finishes.

Great song. Pretty easy so have a go!
Tap to rate this tab
# A B C D E F G H I J K L M N O P Q R S T U V W X Y Z