Angus And Julia Stone - River tab

this isn't 100%
it's just a start, something to play along, etc.

capo 4th,
tab is relative to capo.


INTRO:

   C                 C
E|------------------------------------|
B|--------------0----------------0----|
G|---0----0---0----0---0-------0----0-|
D|-----0h2------2--------0h2-----2----|
A|-3--------3--------3-------3--------|
E|------------------------------------|


   Am                 Am
E|------------------------------------|
B|--------------1----------------1----|
G|---2----2---2----0---2-------2----0-|
D|-----0h2------2--------0h2-----2----|
A|-0--------0--------0-------0--------|
E|------------------------------------|


   
E|----------------------------------------|
B|-0h1---1h3---3/5----5/3---1---1---1---1-|
G|-----0------0-----0-----0---0---0---0---|
D|-------2------------4/2-------2-------2-|
A|-3-----------3/5----------3-------3-----|
E|----------------------------------------|

E|----------------------------------------|
B|-0---0---0---0h1--1---1---1---1---1-----|
G|---0---0---0----0---0---0---0---0---0---|
D|-----2-------2--------2-------2---------|
A|-3-------3--------3-------3-------3-----|
E|----------------------------------------|



E|----------------------------------------|
B|-0h1---1h3---3/5----5/3---1---1---1---1-|
G|-----0------0-----0-----0---0---0---0---|
D|-------2------------4-2-------2-------2-|
A|-3-----------3/5----------3-------3-----|
E|----------------------------------------|

E|----------------------------------------|
B|-0---0---0---0h1--3---3---3---3---3-----|
G|---0---0---0----0---0---0---0---0---0---|
D|-----2-------2--------2-------2---------|
A|-3-------3--------3-------3-------3-----|
E|----------------------------------------|





VERSES:


   C
E|----------------------------------------|
B|----------------------------------------|
G|--0-----0---0------0-----0---0---0------|
D|----0h2-------2------0h2-------2--------|
A|-3--------3------3---------3------------|
E|----------------------------------------|


   Am
E|----------------------------------------|
B|----------------------------------------|
G|--2-----2---2------2-----2---2---2------|
D|----0h2-------2------0h2-------2--------|
A|-0--------0------0---------0------------|
E|----------------------------------------|






not sure about the chorus, but have fun!!
Tap to rate this tab
 
# A B C D E F G H I J K L M N O P Q R S T U V W X Y Z