Song name
# A B C D E F G H I J K L M N O P Q R S T U V W X Y Z

Angus And Julia Stone - Malakai tab

Angus & Julia Stone
Malakai.

not 100%, but a start.


VERSES


   G           C
E|--------3---------------||
B|----3-----------1---0---||
G|---0-0----0----0-0---0--||  
D|--0---0-------2---2-----||
A|-------------3----------||
E|-3----------------------||


CHORUS

   Em
E|--------------------------3-------------||
B|-0---0---0---0---0----3---------1---0---||
G|-0-0--0---0---0------0-0-------0-0---0--||
D|-2--2--2---2---2----0---0--0--2---2-----||
A|-2---------------------------3----------||
E|-------------------3--------------------||
Tap to rate this tab
 
# A B C D E F G H I J K L M N O P Q R S T U V W X Y Z