Song name
# A B C D E F G H I J K L M N O P Q R S T U V W X Y Z

Angus And Julia Stone - Soldier tab

Intro: (muted)
|--------------------|--------------------|
|-----3--3-----------|-----1--1-----------|
|-----2--2-----------|-----2--2-----------|
|--3-----------------|--3-----------------| x 4
|--------------------|--------------------|
|--------------------|--------------------|


First verse: (muted)
|--------------------|--------------------|
|-----3--3-----------|-----1--1-----------|
|-----2--2-----------|-----2--2-----------|
|--3-----------------|--3-----------------| x 7
|--------------------|--------------------|
|--------------------|--------------------|


Chorus:(muted)
|--------|--------|--------|--------|--------|--------|--------|--------|
|---1--1-|---1--1-|---1--1-|---1--1-|---1--1-|---1--1-|---1--1-|---1--1-|
|---0--0-|---0--0-|---0--0-|---0--0-|---2--2-|---2--2-|---2--2-|---2--2-|
|-2------|-2------|-2------|-2------|-0------|-0------|-0------|-0------| x 4
|--------|--------|--------|--------|--------|--------|--------|--------|
|--------|--------|--------|--------|--------|--------|--------|--------|


Second verse: (unmuted)
|--------------------|--------------------|
|-----3--3-----------|-----1--1-----------|
|-----2--2-----------|-----2--2-----------|
|--3-----------------|--3-----------------| x 18
|--------------------|--------------------|
|--------------------|--------------------|


Chorus:(unmuted)
|--------|--------|--------|--------|--------|--------|--------|--------|
|---1--1-|---1--1-|---1--1-|---1--1-|---1--1-|---1--1-|---1--1-|---1--1-|
|---0--0-|---0--0-|---0--0-|---0--0-|---2--2-|---2--2-|---2--2-|---2--2-|
|-2------|-2------|-2------|-2------|-0------|-0------|-0------|-0------| x 4
|--------|--------|--------|--------|--------|--------|--------|--------|
|--------|--------|--------|--------|--------|--------|--------|--------|


Bridge:(unmuted)
|--------------------|--------------------|
|-----3--3-----------|-----1--1-----------|
|-----2--2-----------|-----2--2-----------|
|--3-----------------|--3-----------------| x 7
|--------------------|--------------------|
|--------------------|--------------------|


Chorus:(unmuted)
|--------|--------|--------|--------|--------|--------|--------|--------|
|---1--1-|---1--1-|---1--1-|---1--1-|---1--1-|---1--1-|---1--1-|---1--1-|
|---0--0-|---0--0-|---0--0-|---0--0-|---2--2-|---2--2-|---2--2-|---2--2-|
|-2------|-2------|-2------|-2------|-0------|-0------|-0------|-0------| x 5
|--------|--------|--------|--------|--------|--------|--------|--------|
|--------|--------|--------|--------|--------|--------|--------|--------|


Outro: (muted)
|--------------------|--------------------|
|-----3--3-----------|-----1--1-----------|
|-----2--2-----------|-----2--2-----------|
|--3-----------------|--3-----------------| x 3
|--------------------|--------------------|
|--------------------|--------------------|

End with:
|---------|
|----1----|
|----2----|
|----3----|
|---------|
|---------|
Tap to rate this tab
 
# A B C D E F G H I J K L M N O P Q R S T U V W X Y Z