Song name
# A B C D E F G H I J K L M N O P Q R S T U V W X Y Z

Angus And Julia Stone - Choking tab

-------------------------------------------------------------------------------
			                    CHOKING - Angus & Julia Stone 
-------------------------------------------------------------------------------
Tabbed by:sam.bangma
Email: sam.bangma@hotmail.com

Tuning: Drop D


Played together
e|------------------------------------------------------------------------------------------|
B|---------------------------------------------------------------------5/7~~----------------|
G|------------------------------------------------------------------------------------------|
D|---------------4---------------------5--------------------4-------------------------------|
A|------------------------------------------------------------------------------------------|
D|-----0--------------------0---------------------0-----------------------------------------|


e|------------------------------------------------------------------------------------------|
B|---------------------5/7~~----------------------------------------------------------------|
G|---------------------------------------------6/7\6~~----------------------6\4~~-----------|
D|---------------4----------------------5-------------------------4-------------------4/7~~-|
A|------------------------------------------------------------------------------------------|
D|-----0--------------------------0----------------------0----------------------------------|

e|------------------------------------------------------------------------------------------|
B|--------------------------------------------------5----------------------5/7~~------------|
G|---------------------6/7\6--------------------6-------------------------------------------|
D|---------------4---------------------5----7-------------------4---------------------------|
A|------------------------------------------------------------------------------------------|
D|-----0--------------------0---------------------------0-----------------------------------|


e|------------------------------------------------------------------------------------------|
B|------------------------------------------------------------------------------------------|
G|------------------------------------------------------------------------------------------|
D|---------------4------4/5\4---------------5---------------------------------4-------------|
A|------------------------------------------------4/5---------------4---4---4/5-------------|
D|-----0--------------------------0---------------------0-----------------------------------|



Verse/Chorus (repeats throughout whole song)
e|------------------------------------------------------------------------------------------|
B|------------------------------------------------------------------------------------------|
G|------------------------------------------------------------------------------------------|
D|---------------4---------------------5--------------------4-------------------------------|
A|------------------------------------------------------------------------------------------|
D|-----0--------------------0---------------------0-----------------------------------------|

Please rate, this took me ages


************************************

| /   slide up
| \   slide down
| h   hammer-on
| p   pull-off
| ~   vibrato
| +   harmonic
| x   Mute note
| b   Bend
| pb  Pre-bend
| br  Bend release
| pbr Pre-bend release
| brb Bend release bend

************************************
Tap to rate this tab
 
# A B C D E F G H I J K L M N O P Q R S T U V W X Y Z