Song name
# A B C D E F G H I J K L M N O P Q R S T U V W X Y Z

Angus And Julia Stone - Old Friend tab

beautiful song!



capo 5th, standard tuning.



in relation to capo:

INTRO:

   G                  C
E|-------------------------------------------|
B|-0----0----0----0----1----1----1----1------|
G|--0----0----0----0----0----0----0----0-----|
D|---0----0----0----0----0----0----0----0----|
A|---------------------3---------------------|
E|-3-----------------------------------------|

   G                  C
E|-------------------------------------------||
B|-0----0----0----1p0------------------------||
G|--0----0----0------0-0----0---0---0--------||
D|---0----0----0---------0---0---0---0-------||
A|----------------0----3--0---0---0---0------||
E|-3-----------------------------------------||



VERSES:

 G                  C
E|-------------------------------------------|
B|-0----0----0----0----1----1----1----1------|
G|--0----0----0----0----0----0----0----0-----|
D|-------------------------------------------|
A|---------------------3----3----3----3------|
E|-3----3----3----3--------------------------|

   G                  C
E|---------------------------------------------||
B|-0----0----0----1p0--------------------------||
G|--0----0----0------0-0----0---0---0----------||
D|-----------------------0----0---0---0--------||
A|----------------0----3----3---3---3----------||
E|-3-------------------------------------------||



CHORUS:
..the sun it burns so i'll..
E|---------------------------------||
B|-0-0-0-0-0-0-0-0-0-0-0-0-0-0-0-0-||
G|---------------------------------||
D|---------------------------------||
A|-7---7---5---5---2---2---3---3---||
E|---------------------------------||



..old friend, where you headed for now
 G                  C
E|-------------------------------------------|
B|-0----0----0----0----1----1----1----1------|
G|--0----0----0----0----0----0----0----0-----|
D|-------------------------------------------|
A|---------------------3----3----3----3------|
E|-3----3----3----3--------------------------|

   G                  C
E|---------------------------------------------||
B|-0----0----0----1p0--------------------------||
G|--0----0----0------0-0----0---0---0----------||
D|-----------------------0----0---0---0--------||
A|----------------0----3----3---3---3----------||
E|-3-------------------------------------------|| (x2)



back to verse riff, etc.
Tap to rate this tab
# A B C D E F G H I J K L M N O P Q R S T U V W X Y Z