Song name
# A B C D E F G H I J K L M N O P Q R S T U V W X Y Z

Angus And Julia Stone - Hush tab

one of my favourite songs, here you go!

standard tuning, no capo!



INTRO/VERSES:

E|------------------------------------------------------------
B|-3-------3------3-------3------1-------1------1-------1-----
G|-----0-------0------0-------0------0-------0------0-------0-
D|---4-------4------4-------4------2-------2------2-------2---
A|-5-----5--------5-----5--------3-----3--------3-----3-------
E|------------------------------------------------------------

E|------------------------------------------------------------||
B|-0-------0--------------0--------------0-------------0------||
G|-----0------0-------0------0-------0------0------0-------0--||
D|---0------0---0h2-2------0-------0------0------0-------0----||
A|-------0--------------0------0h2-----2-------------0--------||
E|-3-------------------------------------------3~-------------||



CHORUS:

 ..so hush little darlin', 
E|-----0~---------0~------
B|-----3~---------1~------
G|-----0~---------0~------
D|-----4~---------2~------
A|-----5~---------3~------
E|------------------------

..dont you cry
        E|------------------------------------------------------------||
        B|-0-------0--------------0--------------0-------------0------||
        G|-----0------0-------0------0-------0------0------0-------0--||
        D|---0------0---0h2-2------0-------0------0------0-------0----||
        A|-------0--------------0------0h2-----2-------------0--------||
        E|-3-------------------------------------------3~-------------||


LINK:

E|------------------------------------------------------------------||
B|-3-------3------1-------1------3-------3-----3-------3------------||
G|-----0-------0------0-------0------0-------0-----0-------0--------||
D|---0-------0------2-------2------0-------0-----0-------0----------||
A|-2-----2--------3-----3--------2-----2-------2-----2--------------||
E|------------------------------------------------------------------||


palm muted
E|------------------------------------------------------------------||
B|-7--------7------5-------5------3-------3------0-------0----------||
G|-----7--------7------5-------5------2-------2------2-------2------||
D|---5--------5------5-------5------0-------0------0-------0--------||
A|-5------5--------5-----5--------0-----0--------0-----0------------||
E|------------------------------------------------------------------||




back to verse riff, then two chorus's, same chords/picking pattern.
play along and you'll work it out. enjoy!
Tap to rate this tab
# A B C D E F G H I J K L M N O P Q R S T U V W X Y Z