Song name
# A B C D E F G H I J K L M N O P Q R S T U V W X Y Z

Angus And Julia Stone - Lonely Hands tab

Julia's version of 'Just a Boy'.




standard tuning, no capo


INTRO:
    Am               Am            Am          Am
E|----------------------------------------------------------||
B|----0h1------1-----0h1------1----0h1-----1------1~--1-----||  (x2)
G|---2-----------2--------------2------------2---2~-----2---|| second time
D|--2-----------2--------------2------------2---2~-----2----|| through end
A|-0------0~---------0----0~-------0---0~------0~---0~------||  on single
E|----------------------------------------------------------||  strum of Am


VERSES:
   Am                Am               C    G
E|---------------------------------------------------|
B|----0h1------1-----0h1------1----0--1----3---------|
G|---2-----------2--------------2-----0--0-0--0------|
D|--2-----------2--------------2------2-2--0-0-------|
A|-0------0~---------0----0~----------3--------------|
E|-----------------------------------------3---------|

   Am                Am
E|--------------------------------------||
B|----0h1------1-----1-------1----0-----||
G|---2-----------2--------------2-------||
D|--2-----------2--------------2--------||
A|-0------0~---------0----0~------------||
E|--------------------------------------||



CHORUS:
 ..girl, you make me wanna feel
E|-3~-----------------------------------------------------||
B|-3~--------------------------0h1-----1----0h1-----1-----||
G|-0~-------------------------2----------2--------------2-||
D|-0~------------------------2----------2--------2~---2---||
A|-2~-----------------------0------0~-------0-------------||
E|-3~-----------------------------------------------------||

          ..did i say im just a boy
E|------------------------------------------------------------|
B|-1-------1------0-------0------1-------1------1-------1-----|
G|-----0-------0------0-------0------2-------2------2-------2-|
D|---2-------2------0-------0------2-------2------2-------2---|
A|-3-----3--------------0--------0-----0--------0-----0-------|
E|----------------3-------------------------------------------|


E|------------------------------------------------------------|
B|-1-------1------0-------0------1----------------------------|
G|-----0-------0------0-------0-------------------------------|
D|---2-------2------0-------0---------------------------------|
A|-3-----3--------------0--------0----------------------------|
E|----------------3-------------------------------------------|


back to verse, chorus, etc.


that's all folks.
play along and you'll work it out, enjoy!
Tap to rate this tab
 
# A B C D E F G H I J K L M N O P Q R S T U V W X Y Z