Song name
# A B C D E F G H I J K L M N O P Q R S T U V W X Y Z

Angus And Julia Stone - Broken Brights tab

This is my first tab i have ever submitted but I'm sure this is correct. It's 
extremely simple and should only take a few moments to work out.





Main Chords - Guitar 1 - (0:00/4:11)
These are played through the entire song. There are no variations.  

e-----------|
B-----------|
G-----------|
D--1--4--3--|
A--2--6--4--|
D--4--8--6--|

Is that the old man....





Solo - Guitar 2 (2:00)
Played in electric guitar.

e------------------------------------------------------------|
B--11----9--7--9--4---------11----9--7--9--4-----------------|
G------------------------------------------------------------|
D------------------------------------------------------------|
A------------------------------------------------------------|
D------------------------------------------------------------|


e------------------------------------------------------------|
B--2--2--2--2--2--2--2----7--7--7--7--6--6--2----------------|
G------------------------------------------------------------|
D------------------------------------------------------------|
A------------------------------------------------------------|
D------------------------------------------------------------|


e------------------------------------------------------------|
B--11----9--7--9--4---------11----9--7--9--4-----------------|
G------------------------------------------------------------|
D------------------------------------------------------------|
A------------------------------------------------------------|
D------------------------------------------------------------|


e------------------------------------------------------------|
B--7--7--7--7--7--7--7----6--6--6--6--2--2--2----------------|
G------------------------------------------------------------|
D------------------------------------------------------------|
A------------------------------------------------------------|
D------------------------------------------------------------|

Tap to rate this tab
# A B C D E F G H I J K L M N O P Q R S T U V W X Y Z