Song name
# A B C D E F G H I J K L M N O P Q R S T U V W X Y Z

Angus And Julia Stone - Take You Away tab

TAKE YOU AWAY - Angus and Julia Stone
---------------------------------------
| Tuning: Standard |

INTRO:

      C         E            Am              
e|---------|---------|---------------| 
B|-1-------|-0-------|-1-------1-----|  
G|-----0---|-----0---|-----2-------2-| 
D|---2-----|---2-----|---2-------2---| 
A|-3-----3-|---------|-0-----0-------|
E|---------|-0-----0-|---------------|

VERSE:
When your feeling down
And your sky is grey
And the people that you love
Well they have nothing lovely to say
      C         E            Am              
e|---------|---------|---------------| 
B|-1-------|-0-------|-1-------1-----|  
G|-----0---|-----0---|-----2-------2-| 
D|---2-----|---2-----|---2-------2---| 
A|-3-----3-|---------|-0-----0-------|
E|---------|-0-----0-|---------------|

When your days are long
And lonelier than before
When your bed is cold
And the sheep are at your door
      C         E            Am              
e|---------|---------|---------------| 
B|-1-------|-0-------|-1-------1-----|  
G|-----0---|-----0---|-----2-------2-| 
D|---2-----|---2-----|---2-------2---| 
A|-3-----3-|---------|-0-----0-------|
E|---------|-0-----0-|---------------|


CHORUS:
I'll take you away
I'll take you away
I'll take you
I'll take you away
I'll take you away
 [ Tab from: http://www.guitaretab.com/a/angus-and-julia-stone/253710.html ]
      F         G           C               
e|---------|---------|---------------| 
B|-1-------|-0-------|-1-------1-----|  
G|-----2---|-----0---|-----0-------0-| 
D|---3-----|---0-----|---2-------2---|  
A|---------|---------|-3-----3-------|  
E|-1-----1-|-3-----3-|---------------| 
Tab from: http://www.guitaretab.com/a/angus-and-julia-stone/253710.html ]
     F         G           C               
e|---------|---------|---------------| 
B|-1-------|-0-------|-1-------1-----|  
G|-----2---|-----0---|-----0-------0-| 
D|---3-----|---0-----|---2-------2---|  
A|---------|---------|-3-----3-------|  
E|-1-----1-|-3-----3-|---------------|

      F        G                              
e|---------|---------|---------------|---------------|
B|-1-------|-0-------|--1----0----1--|---------------|
G|-----2---|-----0---|--0----0----2--|---------------|
D|---3-----|---0-----|---------------|---------------|
A|---------|---------|--3----2----0--|---------------|
E|-1-----1-|-3-----3-|---------------|---------------|

      F         G                      
e|---------|---------|---------------|---------------| 
B|-1-------|-0-------|-1-------------|---------------|  
G|-----2---|-----0---|-0-------------|---------------|   
D|---3-----|---0-----|---------------|---------------|   
A|---------|---------|-3-------------|---------------|  
E|-1-----1-|-3-----3-|---------------|---------------|


When you're tired of working like a slave
And the smell of the coffee bean
Well it just won't go away
And you friends, well they've got nothing good to say
You just call out my name
      C         E            Am              
e|---------|---------|---------------| 
B|-1-------|-0-------|-1-------1-----|  
G|-----0---|-----0---|-----2-------2-| 
D|---2-----|---2-----|---2-------2---| 
A|-3-----3-|---------|-0-----0-------|
E|---------|-0-----0-|---------------|


and I'll take you away
I'll take you away
I'll take you
I'll take you away
I'll take you away

I'll take you away
I'll take you away
I'll take you
I will take you away
Tap to rate this tab
 
# A B C D E F G H I J K L M N O P Q R S T U V W X Y Z