Song name
# A B C D E F G H I J K L M N O P Q R S T U V W X Y Z

Angus And Julia Stone - Santa Monica Dream tab

-------------------------------------------------------------------------------
                    SANTA MONICA DREAM - Angus & Julia Stone
-------------------------------------------------------------------------------
Tabbed by: CJJ11

Tuning: Open D, Capo on 3rd fret

Intro/Verse

d  |--------------------------|--------------------------|
A  |-----0-----------0--------|-----0-----------0--------|
F# |-----------1-----------0--|-----------1-----------0--|
D  |--------0-----------0-----|--------0-----------0-----|
A  |--2-----------2-----------|--5-----------5-----------|
D  |--------------------------|--------------------------|

d  |-----0-----------0--------|-----0-----------0--------|
A  |--------------------------|--------------------------|
F# |-----------0-----------0--|-----------0-----------0--|
D  |--0-----0-----0-----0-----|--0-----0-----0-----0-----|
A  |--------------------------|--------------------------|
D  |--------------------------|--------------------------|


Chorus

d ||--------------------------|--------------------------|
A ||-----0-----------0--------|-----0-----------0--------|
F#||*----------0-----------0--|-----------0-----------0--|
D ||*-------0-----------0-----|--------0-----------0-----|
A ||--------------------------|--------------------------|
D ||--0-----------0-----------|--0-----------0-----------|

d  |--------------------------|---------------------------||  x2
A  |-----0-----------0--------|-----0-----------0---------||
F# |-----------0-----------0--|-----------0-----------0--*||
D  |--------0-----------0-----|--------0-----------0-----*||
A  |--------------------------|---------------------------||
D  |--5-----------5-----------|--5-----------5------------||

d  |--------------------------|--------------------------|
A  |-----0-----------0--------|-----0-----------0--------|
F# |-----------0-----------0--|-----------3-----------0--|
D  |--------0-----------0-----|--------0-----------0-----|
A  |--2-----------2-----------|--4-----------4-----------|
D  |--------------------------|--------------------------|

d  |-----0-----------0--------|-----0-----------0--------|
A  |--------------------------|--------------------------|
F# |-----------0-----------0--|-----------0-----------0--|
D  |--0-----0-----0-----0-----|--0-----0-----0-----0-----|
A  |--------------------------|--------------------------|
D  |--------------------------|--------------------------|

d  |--------------------------|--------------------------|
A  |-----0-----------0--------|-----0-----------0--------|
F# |-----------1-----------0--|-----------1-----------0--|
D  |--------0-----------0-----|--------0-----------0-----|
A  |--2-----------2-----------|--5-----------5-----------|
D  |--------------------------|--------------------------|
Tap to rate this tab
# A B C D E F G H I J K L M N O P Q R S T U V W X Y Z