Song name
# A B C D E F G H I J K L M N O P Q R S T U V W X Y Z

Angus And Julia Stone - Santa Monica Dream tab

I can't remember where I pieced this together from, other tabs/youtube and by ear. It
seems mostly right, the bass notes seem to vary when listening and I haven't included the
solo riff towards the end, just listen to the song to get the timing. It's an rad 
chilled song and I hope this helps you guys play it.

Standard Tuning except:
e as normal
B down to A
G down to F#
D as normal
A as normal
E down to D

Capo III fret

Intro/Verse

e|----------------------------------------------------------------------|
B|---0----0------0---0------5---5------5---5----------------------------|
G|-----1----1------3---3------0---0------0----0-------------------------|
D|----0----0------0---0------0---0------0----0--------------------------|
A|--2-----------4----------5----------5---------------------------------|
E|----------------------------------------------------------------------|

Chorus
e|----------------------------------------------------------------------|
B|---5----5------5---5------5---5------5---5----------------------------|
G|-----0----0------0---0------0---0------0----0-------------------------|
D|----0----0------0---0------0---0------0----0--------------------------| x 2
A|--0-----------0---0---------------------------------------------------|
E|-------------------------5----------5---5-----------------------------|

e|----------------------------------------------------------------------|
B|---5----5------5---5------5---5------5---5----------------------------|
G|-----0----0------0---0------0---0------0----0-------------------------|
D|----0----0------0---0------0---0------0----0--------------------------|
A|----------------------------------------------------------------------|
E|--2-----------2---2------4----------4---4-----------------------------|

e|----------------------------------------------------------------------|
B|---5----5------5---5------5---5------5---5----------------------------|
G|-----0----0------0---0------0---0------0----0-------------------------|
D|----0----0------0---0------0---0------0----0--------------------------|
A|----------------------------------------------------------------------|
E|--2-----------2---2------0----------0---0-----------------------------|

-JD
Tap to rate this tab
# A B C D E F G H I J K L M N O P Q R S T U V W X Y Z