Song name
# A B C D E F G H I J K L M N O P Q R S T U V W X Y Z

Angus And Julia Stone - What You Wanted tab

This version is for 2 guitars.
One guitar might work (in that case, you will play the tabs for Guitar 1) but 2 guitars 
would obviously sound more like the album.
This is my interpretation.
I tabbed it by ear, so it might not be 100% accurate.

Standard tuning.
No capo.

Intro:

Guitar 1:

The finger-picking that repeats throughout most of the song is this:

It's like playing Fmaj7 and Am-shaped chords but on the 3rd fret, if that makes sense 
(i'm not good at guitar jargon, sorry).

e|----------------------------------------|
B|---3-----3------------3----3------------|
G|-----4-----4------------4----4----------|   (x4)
D|--5-----5-----5--5---4----4-----4--5----|
A|----------------------------------------|
E|----------------------------------------|

Guitar 2 (playing at the same time):


e|----------------------------------------|
B|----3--------------3--1--0--------------|
G|--4---4---4h5---4----------2---------0--|
D|-----------------------------4--4--4----|
A|----------------------------------------|
E|----------------------------------------|

Verse:

e|----------------------------------------|
B|---3-----3------------3----3------------|
G|-----4-----4------------4----4----------|   (keeps repeating)
D|--5-----5-----5--5---4----4-----4--5----|
A|----------------------------------------|
E|----------------------------------------|

Your sad eyes, they don't keep me alive...

Chorus:

Guitar 1:

e|----------------------------------------|
B|---3-----3------------3----3------------|
G|-----4-----4------------4----4----------|   (x2)
D|--5-----5-----5--5---4----4-----4--5----|
A|----------------------------------------|
E|----------------------------------------|

It's all about... It's all about...

    Bm
e|----------------------------------------|
B|-----------3----------------------------|
G|----4--------4---4----------------------|   (x2)
D|------4--------4------------------------|
A|--2------2------------------------------|
E|----------------------------------------|

It's all about... It's all about what you wanted

The rest of the song is basically the same thing. I couldn't figure out the very last 
chorus though.
If anyone could figure it out, post it in the comments or something.
Tap to rate this tab
# A B C D E F G H I J K L M N O P Q R S T U V W X Y Z