Song name
# A B C D E F G H I J K L M N O P Q R S T U V W X Y Z

Angus And Julia Stone - Walk It Off tab

TUNING: D-A-D-G-B-E
It sounds better with this tuning because we can get the low D note.
However, if you prefer the standard EADGBE tuning, I've added the corresponding
plucking/picking pattern as a post script down below.

CAPO 2
Fret position/finger placement and chords in relation to Capo.

RIFF 1:
    G               Em7           Dsus4         Cadd9
E|------------    -----------    ----------    ----------|
B|----------0-    ---------0-    --------0-    --------0-|
G|----0-------    ----0------    ---0------    ---0------|
D|------------ x4 ----------- x4 ---------- x4 ----------| x4
A|------------    -----------    ----------    -3----3---|
D|--5----5----    --2----2---    -0----0---    ----------|

INTRO: Play RIFF 1 (x2)

                      /  Walk it off now ... work it out
Play RIFF 1 (x2)---> |
                      \  Walk it off dear ... between your legs


            (Here we stand... )
               Em7
            E|----------|
            B|--------0-|
            G|---0------|
            D|----------| x8
            A|----------|
            D|-2----2---|

            (There's nothing left for you... )
               G
            E|----------|
            B|--------0-|
            G|---0------|
            D|----------| x8
            A|----------|
            D|-5----5---|

            (Here I am... )
               Em7
            E|----------|
            B|--------0-|
            G|---0------|
            D|----------| x8
            A|----------|
            D|-2----2---|

            (There's nothing left for you... )
               G
            E|----------|
            B|--------0-|
            G|---0------|
            D|----------| x8
            A|----------|
            D|-5----5---|

             (I will never be... )
               Em7           G
            E|----------    ----------|
            B|--------0-    --------0-|
            G|---0------    ---0------|
            D|---------- x4 ----------| x4
            A|----------    ----------|
            D|-2----2---    -5----5---|

             (I will never be... )
               Em7           G
            E|----------    ----------|
            B|--------0-    --------0-|
            G|---0------    ---0------|
            D|---------- x4 ----------| x4
            A|----------    ----------|
            D|-2----2---    -5----5---|

             (I never wanted you to go... )
               Cadd9         Em7           Dsus4         C
            E|----------    ----------    ----------    ----------    ----|
            B|--------0-    --------0-    --------0-    --------0-    ----|
            G|---0------    ---0------    ---0------    ---0------    ----|
            D|---------- x4 ---------- x4 ---------- x4 ---------- x4 ----|
            A|-3----3---    ----------    ----------    -3----3---    --3-|
            D|----------    -2----2---    -0----0---    ----------    ----|

Follow the pattern for the rest of the song.
Since the song gets heavier, you can play the chords instead of plucking.
Play as power chords:

CHORDS:     G5    E5   D5    C5
        E|--x--|--x--|--x--|--x--|
        B|--x--|--x--|--x--|--x--|
        G|--x--|--x--|--7--|--5--|
        D|--5--|--2--|--7--|--5--|
        A|--5--|--2--|--5--|--3--|
        D|--5--|--2--|--0--|--x--|

Song ends in G : ----------|
                 --------0-|
                 ---0------|
                 ----------|
                 ----------|
                 -5----5---|

************************************************

PS- For standard E-A-D-G-B-E tuning:

    G               Em7           Dsus4         Cadd9
E|------------    -----------    ----------    ----------|
B|----------0-    ---------0-    --------0-    --------0-|
G|----0-------    ----0------    ---0------    ---0------|
D|------------ x4 ----------- x4 ---------- x4 ----------| x4
A|------------    -----------    --5---5---    -3----3---|
D|--3----0----    --0----0---    ----------    ----------|

CHORDS:     G5    E5   D5    C5
        E|--x--|--x--|--x--|--x--|
        B|--x--|--x--|--x--|--x--|
        G|--x--|--x--|--7--|--5--|
        D|--5--|--2--|--7--|--5--|
        A|--5--|--2--|--5--|--3--|
        D|--3--|--x--|--x--|--x--|
Tap to rate this tab
# A B C D E F G H I J K L M N O P Q R S T U V W X Y Z