Song name
# A B C D E F G H I J K L M N O P Q R S T U V W X Y Z

Angus And Julia Stone - The Devils Tears tab

-------------------------------------------------------------------------------
                             THE DEVIL'S TEARS - Angus & Julia Stone
-------------------------------------------------------------------------------

| h  Hammer-on

Capo = 1st Fret (Not Relative)

Intro.
e|--3h4--------4---------------------------------------0h3-------3--------|
B|---------0-------0---4-------4------0-------0---------------4------4----|
G|------0--------0---------0-------0-------0------0---------3------3------|
D|--3-------3------------3-------3-------0------0------0-------0----------| x2
A|---------------------4-----4--------------------------------------------|
E|------------------------------------4-----4-----------------------------|

|--3--------3------3h4-------4-----6-------------------------------------|
|------4--------4--------4-------4---------------------------------------|
|----3--------3--------3-------3-----------------------------------------|
|--0-----0---------0-------0---------------------------------------------|
|------------------------------------------------------------------------|
|------------------------------------------------------------------------|


Verse
|--3h4--------4---------------------------------------0h3-------3--------|
|---------0-------0---4-------4------0-------0---------------4------4----|
|------0--------0---------0-------0-------0------0---------3------3------|
|--3-------3------------3-------3-------0------0------0-------0----------| x8
|---------------------4-----4--------------------------------------------|
|------------------------------------4-----4-----------------------------|

|--3--------3------3h4-------4-----6-------6-----------------------------|
|------4--------4--------4-------4-----4-------4-------------------------|
|----3--------3--------3-------3-----3-------3---------------------------|
|--0-----0---------0-------0-------0-----0-------------------------------|
|------------------------------------------------------------------------|
|------------------------------------------------------------------------|


Chorus
|--3h4--------4---------------------------------------0h3-------3--------|
|---------0-------0---4-------4------0-------0---------------4------4----|
|------0--------0---------0-------0-------0------0---------3------3------|
|--3-------3------------3-------3-------0------0------0-------0----------| x8
|---------------------4-----4--------------------------------------------|
|------------------------------------4-----4-----------------------------|


Verse - x1 (As Above)

Chorus - x5

Outro. - x8 (Same as Chorus)
Tap to rate this tab
# A B C D E F G H I J K L M N O P Q R S T U V W X Y Z