Song name
# A B C D E F G H I J K L M N O P Q R S T U V W X Y Z

Angus And Julia Stone - Bella tab

-------------------------------------------------------------------------------
                             BELLA - Angus & Julia Stone
-------------------------------------------------------------------------------

| h  Hammer-on
| p  Pull-off

Capo = 1st Fret (Relative)

Intro.
e|----------------------------|-----------------------|----------------------------|
B|-0h2p0------3------0h2------|-0h2p0------3------0h2-|-0h2p0------3------0h2------|
G|-4----------4---------------|-4----------4----------|-4----------4---------------|
D|-2------2------2------------|-0------0------0-------|-2------2------2------------|
A|-0-------0------0-----------|-0-------0------0------|-0-------0------0-----------|
E|-0------------------------0-|-0---------------------|-0------------------------0-|

|-------------------------|
|-0h2p0------3------2-----|
|-4----------4------4-----|
|-0------0------0---------| 
|-0-------0------0--------|
|-0-----------------------|
  
|---------------|---------------|----------------|--------------|
|--2-------2----|--2-------2----|--2h3------3----|--2-------2---|
|------4--------|------4--------|-------4--------|------4-------|
|----2-------2--|----2-------2--|-----2-------2--|----2-------2-|
|--0-----0------|--0-----0------|--0------0------|--0-----0-----|
|---------------|---------------|----------------|--------------|

|--------------|---------------|---------------|--------------| |--0-----------|
|--2-------2---|--2h3------3---|--2--------2---|--0-------0---| |----------2---|
|------2-------|-------2-------|------2--------|------2-------| |------4-------|
|----0-------0-|-----0-------0-|----0--------0-|----0-------0-| |----2-------2-| x4
|--2-----2-----|--2------2-----|--2-----2------|--2-----2-----| |--0-----0-----|
|--------------|---------------|---------------|--------------| |--------------|

|--------------|---------------|---------------|--------------|
|--2-------2---|--2h3------3---|--2--------2---|--0-------0---|
|------2-------|-------2-------|------2--------|------2-------|
|----0-------0-|-----0-------0-|----0--------0-|----0-------0-|
|--2-----2-----|--2------2-----|--2-----2------|--2-----2-----|
|--------------|---------------|---------------|--------------|

Verse
|--------------|    |--------------|                    |--------------|
|--2-------2---|    |--2-------2---|                    |--2-------2---|    
|------4-------|    |------2-------|                    |------4-------|    
|----2-------2-| x4 |----0-------0-| x4     x3(All)     |----2-------2-| x4
|--0-----0-----|    |--2-----2-----|                    |--0-----0-----|    
|--------------|    |--------------|                    |--------------|

|--------------|--------------|---------------|--------------|  |--0-----------|
|--2-------2---|--2-------2---|--2h3------2---|--2-------2---|  |----------2---|
|------2-------|------2-------|-------2-------|------2-------|  |------4-------|
|----0-------0-|----0-------0-|-----0-------0-|----0-------0-|  |----2-------2-| x4
|--2-----2-----|--2-----2-----|--2------2-----|--2-----2-----|  |--0-----0-----|
|--------------|--------------|---------------|--------------|  |--------------|


Chorus
|---------------|---------------|----------------|-----------------|
|--0-------0----|--2-------2----|--3--------3----|--2--------2-----|
|------1--------|------2--------|-------2--------|------2----------|
|----2-------2--|----0-------0--|--0--0---0---0--|----2--------2---| x3
|---------------|---------------|----------------|--0------0-------|
|--0-----0------|--2-----2------|----------------|-----------------|



|---------------|---------------|----------------|  |--0-------------|
|--0-------0----|--2-------2----|--3--------3----|  |-----------3----|
|------1--------|------2--------|-------2--------|  |-------2--------|
|----2-------2--|----0-------0--|--0--0---0---0--|  |--0--0---0---0--| x5
|---------------|---------------|----------------|  |----------------|
|--0-----0------|--2-----2------|----------------|  |----------------|

Bridge
|---------------|---------------|--------------|--------------|
|--2-------2----|--2h3------3---|--2-------2---|--2-------2---|
|------4--------|-------4-------|------4-------|------4-------|
|----2-------2--|-----2-------2-|----2-------2-|----2-------2-|
|--0-----0------|--0------0-----|--0-----0-----|--0-----0-----|
|---------------|---------------|--------------|--------------|

|--------------|---------------|---------------|--------------| |--0-----------|
|--2-------2---|--2h3------3---|--2--------2---|--2-------2---| |----------2---|
|------2-------|-------2-------|------2--------|------2-------| |------4-------|
|----0-------0-|-----0-------0-|----0--------0-|----0-------0-| |----2-------2-| x4
|--2-----2-----|--2------2-----|--2-----2------|--2-----2-----| |--0-----0-----|
|--------------|---------------|---------------|--------------| |--------------|

|--------------|---------------|---------------|--------------|
|--2-------2---|--2h3------3---|--2--------2---|--2-------2---|
|------2-------|-------2-------|------2--------|------2-------| 
|----0-------0-|-----0-------0-|----0--------0-|----0-------0-| 
|--2-----2-----|--2------2-----|--2-----2------|--2-----2-----|
|--------------|---------------|---------------|--------------|

Verse 2 - Same as Verse 1

Chorus - Same as Chorus - x1
 
Bridge 2
|---------------|---------------|--------------|--------------|
|--2-------2----|--2h3------3---|--2-------2---|--2-------2---|
|------4--------|-------4-------|------4-------|------4-------|
|----2-------2--|-----2-------2-|----2-------2-|----2-------2-|
|--0-----0------|--0------0-----|--0-----0-----|--0-----0-----|
|---------------|---------------|--------------|--------------|

|--------------|---------------|---------------|--------------| |--0-----------|
|--2-------2---|--2h3------3---|--2--------2---|--2-------2---| |----------2---|
|------2-------|-------2-------|------2--------|------2-------| |------4-------|
|----0-------0-|-----0-------0-|----0--------0-|----0-------0-| |----2-------2-| x4
|--2-----2-----|--2------2-----|--2-----2------|--2-----2-----| |--0-----0-----|
|--------------|---------------|---------------|--------------| |--------------|

|--------------|---------------|---------------|--------------|
|--2-------2---|--2h3------3---|--2--------2---|--0-------0---|
|------2-------|-------2-------|------2--------|------2-------|
|----0-------0-|-----0-------0-|----0--------0-|----0-------0-|
|--2-----2-----|--2------2-----|--2-----2------|--2-----2-----|
|--------------|---------------|---------------|--------------|

Outro.
|--------------|    |--------------|                    |-0-----|
|--2-------2---|    |--2-------2---|                    |-2-----|
|------4-------|    |------2-------|                    |-2-----|
|----2-------2-| x4 |----0-------0-| x4     x2(All)     |-0-----|
|--0-----0-----|    |--2-----2-----|                    |-2-----|
|--------------|    |--------------|                    |-------|
Tap to rate this tab
 
# A B C D E F G H I J K L M N O P Q R S T U V W X Y Z