Song name
# A B C D E F G H I J K L M N O P Q R S T U V W X Y Z

Angus And Julia Stone - Heart Full Of Wine tab

Angus and Julia Stone
Heart Full of Wine


Capo 4
Intro                                                   
e|-------------------------------------------|         
B|------1--------1--------1----------0h1-----|  
G|----0---0----0---0----0---0-----0----------|   
D|--3--------2-------------------------------|
A|-------------------------------------------|x4  
E|--------------------3---------3------------|   


Saw the washing on the line
As I lay on the floor
With a heart full of wine
With nothing left to pour, to pour

e|-------------------------------------------|         
B|------1--------1--------1----------0h1-----|  
G|----0---0----0---0----0---0-----0----------|   
D|--3--------2-------------------------------|
A|-------------------------------------------|x5
E|--------------------3---------3------------|
   
Silver moon felling high
Through the window beneath the door
Her eyes are so kind
With nothing left to pour,  to pour
e|-------------------------------------------|         
B|------1--------1--------1----------0h1-----|  
G|----0---0----0---0----0---0-----0----------|   
D|--3--------2-------------------------------|
A|-------------------------------------------|x5
E|--------------------3---------3------------|


 Pre-Chorus
e|-------------------------| 
B|-------1--------0--------| 
G|-----0---0----0----------| 
D|-------------------------| 
A|-------------------------|
E|---3--------3------------| 


You stepped into these days

e|---------------------------------------------------------------------| 
B|--0-1-3---1p0-1----1--------1--------1--------1----------------------| 
G|--0-0-0---0---0--0---0----0---0----0---0----0---0--------------------| 
D|------------------------3--------3--------3--------------------------| 
A|---------------------------------------------------------------------| 
E|---------------------------------------------------------------------| 


You stepped into these days

e|---------------------------------------------------------------------| 
B|--0-1-5---3s1-3----3--------3--------3--------3----------------------|
G|--0-0-0---0---0--0---0----0---0----0---0----0---0--------------------| 
D|---------------------------------------------------------------------| 
A|---------------------------------------------------------------------| 
E|------------------------3--------3--------3--------------------------| 

You stepped into these days

e|---------------------------------------------------------------------| 
B|--0-1-3---1p0-1----1--------1--------1--------1----------------------| 
G|--0-0-0---0---0--0---0----0---0----0---0----0---0--------------------| 
D|------------------------3--------3--------3--------------------------| 
A|---------------------------------------------------------------------| 
E|---------------------------------------------------------------------|


You stepped into these days   And you went your way

e|---------------------------------------------------------------------| 
B|--0-1-5---3s1-3----3--------3--------3--------3----------------------|
G|--0-0-0---0---0--0---0----0---0----0---0----0---0--------------------| 
D|---------------------------------------------------------------------| 
A|---------------------------------------------------------------------| 
E|------------------------3--------3--------3--------------------------|


e|-------------------------------------------|         
B|------1--------1--------1----------0h1-----|  
G|----0---0----0---0----0---0-----0----------|   
D|--3--------2-------------------------------|
A|-------------------------------------------|x2
E|--------------------3---------3------------|   

We’re sitting out on the couch
A movie plays without the sound
Words to say left in my mouth
With nothing left to pour, to pour

e|-------------------------------------------|         
B|------1--------1--------1----------0h1-----|  
G|----0---0----0---0----0---0-----0----------|   
D|--3--------2-------------------------------|
A|-------------------------------------------|x5
E|--------------------3---------3------------|   

Silver moon feeling high
Through the window beneath the door
Her eyes are so kind
With nothing left to pour, to pour
e|-------------------------------------------|         
B|------1--------1--------1----------0h1-----|  
G|----0---0----0---0----0---0-----0----------|   
D|--3--------2-------------------------------|
A|-------------------------------------------|x5
E|--------------------3---------3------------|   






Pre-Chorus
e|-------------------------| 
B|-------1--------0--------| 
G|-----0---0----0----------| 
D|-------------------------| 
A|-------------------------|
E|---3--------3------------|


You stepped into these days

e|---------------------------------------------------------------------| 
B|--0-1-3---1p0-1----1--------1--------1--------1----------------------| 
G|--0-0-0---0---0--0---0----0---0----0---0----0---0--------------------| 
D|------------------------3--------3--------3--------------------------| 
A|---------------------------------------------------------------------| 
E|---------------------------------------------------------------------| 


You stepped into these days


e|---------------------------------------------------------------------| 
B|--0-1-5---3s1-3----3--------3--------3--------3----------------------|
G|--0-0-0---0---0--0---0----0---0----0---0----0---0--------------------| 
D|---------------------------------------------------------------------| 
A|---------------------------------------------------------------------| 
E|------------------------3--------3--------3--------------------------| 

You stepped into these days

e|---------------------------------------------------------------------| 
B|--0-1-3---1p0-1----1--------1--------1--------1----------------------| 
G|--0-0-0---0---0--0---0----0---0----0---0----0---0--------------------| 
D|------------------------3--------3--------3--------------------------| 
A|---------------------------------------------------------------------| 
E|---------------------------------------------------------------------|


You stepped into these days  

e|---------------------------------------------------------------------| 
B|--0-1-5---3s1-3----3--------3--------3--------3----------------------|
G|--0-0-0---0---0--0---0----0---0----0---0----0---0--------------------| 
D|---------------------------------------------------------------------| 
A|---------------------------------------------------------------------| 
E|------------------------3--------3--------3--------------------------|


Oh you stepped into 
e|---------------------------------------------------------------------| 
B|--0-1-3---1p0-1----1--------1--------1--------1----------------------| 
G|--0-0-0---0---0--0---0----0---0----0---0----0---0--------------------| 
D|------------------------3--------3--------3--------------------------| 
A|---------------------------------------------------------------------| 
E|---------------------------------------------------------------------|

Oh you stepped into                                   One of these days

e|---------------------------------------------------------------------| 
B|--0-1-5---3s1-3----3--------3--------3--------3----------------------|
G|--0-0-0---0---0--0---0----0---0----0---0----0---0--------------------| 
D|---------------------------------------------------------------------| 
A|---------------------------------------------------------------------| 
E|------------------------3--------3--------3--------------------------|





Outro
e|---------------------------------------------------------------------|
B|-----3------5------3------5---------1-0---0------1-0---0-------------| 
G|------0------0------0------0--------0-0---0------0-0---0-------------| x4
D|----0--0---0--0---0--0---0--0----------------------------------------|
A|---2------2------2------2--------2-------------2---------------------| 
E|--3------3------3------3-------3--------3----3-------3---------------| 



Tap to rate this tab
 
# A B C D E F G H I J K L M N O P Q R S T U V W X Y Z