Song name
# A B C D E F G H I J K L M N O P Q R S T U V W X Y Z

Angus And Julia Stone - Private Lawns tab

-- PRIVATE LAWNS by Angus & Julia Stone -- 
Tabbed by scurt

I haven't written everything out, so have a listen to the song on where
to play guitar two. I would like to give credit to privateman2007 
for the chords.

Standard tuning EADGBe.

Am = x-0-2-2-1-0
Asus2 = x-0-2-2-0-0

Guitar One
    Am
e|--------------------|
B|-----1-1-1-1-1-1-1--|
G|-----2-2-2-2-2-2-2--|
D|--------------------|
A|--0-----------------|
E|--------------------|

   Am*
e|-------------------|---------------|---|
B|-----1-1-1-1-1-1-1-|-1-1-1-1-1-1-1-|-1-|
G|-----2-2-2-2-2-2-2-|-2-2-2-2-2-2-2-|-2-|
D|-------------------|---------------|---|
A|--0----------------|---------------|---|
E|-------------------|---------------|---|
   
    Asus2
e|--------------------|
B|-----0-0-0-0-0-0-0--|
G|-----2-2-2-2-2-2-2--|
D|--------------------|
A|--0-----------------|
E|--------------------|


Guitar Two
    Riff 1
e|----------------------------------|
B|----------------------------------|
G|--12h14-10h12-9h10-7h9-5h7-4h5-2--|
D|----------------------------------|
A|----------------------------------|
E|----------------------------------|

    Riff 2
e|----------------------------------|
B|----------------------------------|
G|------0--2-2--------0-2-2/4\2-----|
D|--0h2-----------0h2---------------|
A|----------------------------------|
E|----------------------------------|

    Riff 3
e|----------------------------------------|
B|----------------------------------------|
G|-------9--------9--------9--------9-----|
D|--9h10-----9h10-----9h10-----9h10-------|
A|----------------------------------------|
E|----------------------------------------|

    Riff 4
e|-----------------------|
B|-----------------------|
G|--2h4-4h5-7h9-9h10-----|
D|-----------------------|
A|-----------------------|
E|-----------------------|

Trumpet
e|------------------------------------------------|
B|--------12--10---10-10--8-8--6-6-5-4-5--6--6-5--|
G|--9-8-9-----------------------------------------|
D|------------------------------------------------|
A|------------------------------------------------|
E|------------------------------------------------|

[INTRO] 
(Am)(Am)(Am)(Am)
(Am)(Am)(Am)(Am) 

[VERSE]
 (Am)       (Am)
I just flew in
     (Am)    (Am)
From the windy city
(Am)         (Am*)
The windy city is mighty pretty
        (Am)           (Am)
But they ain’t got what we got
(Am)      (Am)
No sir’ree

[BRIDGE]
           (Asus2)      (Asus2)           (Am)(Am)
They’ve got private lawns and public parks
(Am)                  (Am)
Well they’ve got those minstrel shows
(Am)                   (Am)
Pretty ladies with the big shot bows
          (Asus2)      (Asus2)            (Am)(Am)
They’ve got private lawns and public parks

[INTERLUDE]
(Am)(Am)(Am)(Am)
(Asus2)(Asus2)(Am)

(Am)(Am)(Am)(Am)
(Asus2)(Asus2)(Am)(Am)

[Repeat Verse]

[OUTRO]
           (Asus2)      (Asus2)           (Am)(Am)
They’ve got private lawns and public parks
           (Asus2)      (Asus2)           (Am)(Am)
They’ve got private lawns and public parks
           (Asus2)      (Asus2)           (Am)(Am)
They’ve got private lawns and public parks
Tap to rate this tab
# A B C D E F G H I J K L M N O P Q R S T U V W X Y Z