Song name
# A B C D E F G H I J K L M N O P Q R S T U V W X Y Z

Ani Difranco - Every State Line tab

-------------------------------------------------------------------------------
			     Every State Line - Ani Difranco
-------------------------------------------------------------------------------
Tabbed by: sugapablo
Album: Living in Clip

Tuning: Standard

The song is basically 3 chords the whole way through: Am - C - G  But she plays it with 
bunch of hammers and pull-offs.

e|----------------------------------------------------------------|
B|-1-----1------1-----1------0-----0------1-----------------------|
G|-0--h--2------0-----0------0-----0------2-----------------------|
D|-0--h--2------2-----2------2--p--0------2-----------------------|
A|-0-----0------0--h--3------3--p--2------0-----------------------|
E|----------------------------------------------------------------|


      Am                        C
I got pulled over in west Texas
              G              Am
So they could look inside my car
He said, "Are you an american citizen?"
I said, "Yes sir, so far."
They made sure I wasn't smuggling
Someone in from Mexico
Someone willing to settle for America
'Cause there's nowhere else to go
Tap to rate this tab
# A B C D E F G H I J K L M N O P Q R S T U V W X Y Z