Song name
# A B C D E F G H I J K L M N O P Q R S T U V W X Y Z

Ani Difranco - Educated Guess tab

-------------------------------------------------------------------------------
			     Educated Guess- Ani Difranco
-------------------------------------------------------------------------------
Tabbed by: Ben Van
Email:vintagebronze@yahoo.com

Tuning: Standard Dropped 1 1/2 steps to Db
/= Scrape
\= Slide (down)

Intro/Verses/Chorus/Outro
(With variations that have to be heard to understand)

Db|----0--/0---0---------0--/0---0---0-------------------------------|
Ab|----0--/0--0-0--------0--/0----0--0-------------------------------|
 E|----4--/6-----6-------9--/9--9----9-------------------------------|
 B|-------/6-------6---9----/9-------9-------------------------------|  
F#|---2---/4------4---6-----/7-------7-------------------------------|
Db|-0----------------------------------------------------------------|

Bridge

Db|------------0-------------0-------------0----------0--------------|
Ab|----0--00--0--0----------0--0----0-00--0--0-0-00--0-0-------------|
 E|----3--33----3--/9-9-/8----8-----3-33----3--3-33-----3------------|
 B|----4--44-------/9-9-/9----------4-44-------4-44------4-----------|
F#|----4--44-------/7---/9----------4-44-------4-44------------------|
Db|-\2-2--22------------/7------7\2-2-22-------2-22------------------|

Not to bad for the first ever "Educated Guess" tab on the net.
I think that's just about 100%
If anyone thinks they know better please e-mail me
Tap to rate this tab
# A B C D E F G H I J K L M N O P Q R S T U V W X Y Z