Song name
# A B C D E F G H I J K L M N O P Q R S T U V W X Y Z

Ani Difranco - So What tab

Its a pretty easy song

Tuning: DADGBE

	Verse

e |-------------------------------------------------------------1-----|
b |--------------1-------------1--------------3-----------------1-----|
g |-----0h2------2---2p0----------------------2------0-------2------2-|
D |-0h2-----------------2--------2p0------2---2--0h2------------------|
A |----------0-0---------3--3--------3--0-----------------------------|
D |------------------------------------------------------3------------|


Chorus

e |-------0---------1--------0--------0------------------------------|
a |-------1---------1--------1--------3------------------------------|
g |----0-----------0-------0--------2--------------------------------|
D |------------------------------------------------------------------|
A |--3---------------------------------------------------------------|
D |-------------3-------2-----------0--------------------------------|
Tap to rate this tab
# A B C D E F G H I J K L M N O P Q R S T U V W X Y Z