Song name
# A B C D E F G H I J K L M N O P Q R S T U V W X Y Z

Ani Difranco - 32 Flavors tab

------------------------------------------------------------------------------
			     32 Flavors - Ani Difranco
------------------------------------------------------------------------------
Tabbed by: David Petrey

Tuning: high drop-D? Detune high e string to d.

Capo 3

d|------------0---------5-------0--------|
B|--1--3--------0-----3---3--5----5p0----|
G|--0------0------0---0------0--------0--|
D|--2------2---------(4)-----------------|
A|--3-----(2)---------5------3-----------|
E|---------0-----------------------------|

I never could figure out exactly what Ani was doing on this song. After watching many 
videos of Ani I found this video:
http://www.youtube.com/watch?v=wzm33hXHcUk&feature=related
There I noticed that the e string had to be tuned different. So thanks to scienceisneato 
that.
Tap to rate this tab
# A B C D E F G H I J K L M N O P Q R S T U V W X Y Z