Song name
# A B C D E F G H I J K L M N O P Q R S T U V W X Y Z

Ani Difranco - Evolve tab

Open D7 Tuning: D,A,C,F#,A,d
[nh] = natural harmonic


|--------------------------------|--------------------------------|
|------5-------------------------|------5-------------------------|
|--------------------------------|--------------------------------|x2
|----------0---------------------|----------0---------------------|
|----------------3---------------|----------------5---------------|
|0-----------7-----------4-------|0-----------7-------4---3-------|


|--------------------------------|--------------------------------|
|------5-------------------------|------5-------------------------|
|----------------x-x-------------|--------------------------------|
|----------0-----x-x-------------|----------0---------------------|
|--------------------3-----------|----------------5---------------|
|0-----------7-----------4-------|0-----------7-------4---3-------|


|--------------------------------|--------------------------------|
|------5-------------------------|------5-------------------------|
|--------------------------------|--------------------------------|
|----------0---------------------|----------0---------------------|
|----------------3---------------|----------------5---------------|
|0-----------7-----------4-------|0-----------7-----------3-------|
                                                              I

|--------------------------------|--------------------------------|
|------5-------------------------|------5-------------------------|
|--------------------------------|--------------------------------|
|----------0---------------------|----------0---------------------|
|----------------3---------------|----------------5---------------|
|0-----------7-----------4-------|0-----------7-------4---3-------|
 wa. in  st. wi. peo  -  ple              mu. taller than me  and

|--------------------------------|--------------------------------|
|------5-------------------------|------5-------------------------|
|--------------------------------|--------------------------------|
|----------0---------------------|----------0---------------------|
|----------------3---------------|----------------5---------------|
|0-----------7-----------4-------|0-----------7-------4---3-------|
 Partly  its the bo. but                  mostly  its my  chi and

|--------------------------------|--------------------------------|
|------5-------------------------|------5-------------------------|
|--------------------------------|--------------------------------|
|----------0---------------------|----------0---------------------|
|----------------3---------------|----------------5---------------|
|0-----------7-----------4-------|0-----------7-----------3-------|
 Iím be  comin   trans   fi. with nature  and my  pa. in  it  which

|--------------------------------|--------------------------------|
|------5-------------------------|--------------------------------|
|--------------------------------|--------------------------------|
|----------0---------------------|--------------------------------|
|----------------3---------------|--------------------------------|
|0-----------7-----------4-------/5-------------------------------|
 I   believe ju. Sig ni fies Iím  finally wakiní  up        Ďn that

|--------------------------------|--------------------------------|
|------5-------------------------|------5-------------------------|
|--------------------------------|--------------------------------|
|----------0---------------------|----------0---------------------|
|----------------3---------------|----------------5---------------|
|0-----------7-----------4-------|0-----------7-----------3-------|
 mo. outside my  kitchen do. Shes bonkers for th. Bare    bulb

|--------------------------------|--------------------------------|
|------5-------------------------|------5-------------------------|
|--------------------------------|--------------------------------|
|----------0---------------------|----------0---------------------|
|----------------3---------------|----------------5---------------|
|0-----------7-----------4-------|0-----------7-------4---3-------|
   Flyin ro. In  cir     cles     bashin  in her  ex  o   skull and

|--------------------------------|--------------------------------|
|------5-------------------------|------5-------------------------|
|--------------------------------|--------------------------------|
|----------0---------------------|----------0---------------------|
|----------------3---------------|----------------5---------------|
|0-----------7-----------4-------|0-----------7-----------3-------|
 Ou.i. t.wor.she na  vi  gates     fine   by  the moon         but

|--------------------------------|--------------------------------|
|------5-------------------------|--------------------------------|
|--------------------------------|--------------------------------|
|----------0---------------------|--------------------------------|
|----------------3---------------|--------------------------------|
|0-----------7-----------4-------/5-------------------------------|
 Get her ro. A   li. Bu. An. Shes         dumb       and  she id

|--------------------------------|--------------------------------|
|------5-------------------------|------5-------------------------|
|--------------------------------|--------------------------------|
|----------0---------------------|----------0---------------------|
|----------------3---------------|----------------5---------------|
|0-----------7-----------4-------|0-----------7-----------3-------|
 Tryin   to  e   volve                                        shes

|--------------------------------|--------------------------------|
|------5-------------------------|------5-------------------------|
|--------------------------------|----------------x-x-------------|
|----------0---------------------|----------0-----x-x-------------|
|----------------3---------------|--------------------5-----------|
|0-----------7-----------4-------|0-----------7-----------3-------|
 Tryin   to  e   volve                                        shes

|--------------------------------|--------------------------------|
|------5-------------------------|------5-------------------------|
|--------------------------------|----------------x-x-------------|
|----------0---------------------|----------0-----x-x-------------|
|----------------3---------------|--------------------5-----------|
|0-----------7-----------4-------|0-----------7-----------3-------|
 Tryin   to  e   volve                                        shes

|--------------------------------|--------------------------------|
|------5-------------------------|------5-------------------------|
|--------------------------------|----------x-x-------------------|
|----------0---------------------|----------x-x-------------------|
|----------------3---------------|----------------3---5-----------|
|0-----------7-----------4-------|0-----------------------3-------|
 Tryin   to  e   volve

|--------------------------------|--------------------------------|
|------5-------------------------|------5-------------------------|
|--------------------------------|--------------------------------|
|----------0---------------------|----------0---------------------|
|------------------3-3-----------|----------------5---5---5-------|
|0-----------7-----------4-------|0-----------7-------------------|


 
                                                 [nh]    [nh]
|--------------------------------|--------------------------------|
|------5-------------------------|------5----------------[5]------|
|----------------x-x-------------|---------------[4]-----[5]------|
|----------0-----x-x-------------|----------0----[4]-----[5]------|
|--------------------3-----------|---------------[4]-----[5]------|
|0-----------7-----------4-------|0-----------7--[4]-----[5]------|
                                                     now  lets get

*******************************************************************

I think that pretty much covers all the little bits and bobs, 
Excepting Aniís mysterious overdubs.
Remember to keep it snappy!
Tap to rate this tab
# A B C D E F G H I J K L M N O P Q R S T U V W X Y Z