Song name
# A B C D E F G H I J K L M N O P Q R S T U V W X Y Z

Ani Difranco - Both Hands chords

Highlighted       Show chord diagrams
Standard tuning

 C                Gsus4            Am               G5
|----------------|----------------|----------------|----------------|
|1-----1-1-1-1-1-|1-----1-1-1-1-1-|1-----1-1-1-1-1-|3---------------|
|0-----0-0-0-0-0-|0-----0-0-0-0-0-|2-----2-2-2-2-2-|0---------------|
|2-----2-2-2-2-2-|0-----0-0-0-0-0-|2-----2-2-2-2-2-|0---------------|
|3-----3-3-3-3-3-|----------------|0-----0-0-0-0-0-|----------------|
|----------------|3-----3-3-3-3-3-|----------------|3---------------|

     C           Gsus4
I am walking out in the rain
        Am                               G5
AndI am listening to the low moan of the dial tone again
      C          Gsus4
And I am getting nowhere with you
      Am
And I cant let go and I 

 Gsus4  C      A7sus4
|------|------|---------------|
|1-----|1-----|3--------------|
|0-----|0-----|0--------------|
|0-----|2-----|2--------------|
|------|3-----|0--------------|
|3-----|------|---------------|
 Canít  get    through
Tap to rate this tab
 
# A B C D E F G H I J K L M N O P Q R S T U V W X Y Z