Song name
# A B C D E F G H I J K L M N O P Q R S T U V W X Y Z

Ani Difranco - Hearse tab

Song: Hearse
Artisit: Ani DiFranco
Album: Which side are you on? (To be released Jan. 2012)
Tabbed by: Sara
Tuning: Capo 3rd fret

Easy and lovely. :)

Intro:

e|----------------------------------------------------------------|
B|-----3--3-----3--3-------3--3-------3--3-------3--3-------3-----|
G|-----0--0-----0--0-------0--0-------0--0-------0--0-------0-----|
D|----------------------------------------------------------------|
A|----------------------------------------------------------------|
E|--0h3------0h3------0h3--------0h3--------0h3--------0h3--------|

e|--------------------------------------------------|
B|------3-------3------3-------3-------3-------3----|
G|------0-------0------0-------0-------0-------0----|
D|--------------------------------------------------|
A|--------------------------------------------------|
E|--3p0----3p0----0h3-----0h3-----3p0-----3p0-------|

End of Verse/Bridge-y part:

e|------------|
B|--3--5--3---|
G|--0--0--0---|
D|------------|
A|--3--5--3---|
E|------------|

Verse (the same as the intro for the most part, just shorter...:) Thought it might be 
helpful for some...:

e|----------------------------------------------------------------|
B|-----3--3-----3--3-------3--3-------3--3--------3--3------3--3--|
G|-----0--0-----0--0-------0--0-------0--0--------0--0------0--0--|
D|----------------------------------------------------------------|
A|----------------------------------------------------------------|
E|--0h3------0h3------0h3--------0h3--------3p0--------3p0--------|

e|-------------------------------------------|
B|------3--3-------3--3------3--3-----3------|
G|------0--0-------0--0------0--0-----0------|
D|-------------------------------------------|
A|-------------------------------------------|
E|--0h3-------0h3--------3p0------3p0--------|

Notes:
This is the basic outline of the song. She adds some fingerpicking stuff at points, 
which is pretty easy to pick up; this is just the general idea.

I was able to figure it out by watching this video:
http://www.youtube.com/watch?v=Iz6snoSNeE4

The lyrics in the "show more" section arenít what I hear, so here are those, too:

I don't wanna strive for nothing
Anymore
I just wanna lie here with you
Keep the wolves outside the door
There is nothing in this world
That you could ever show me
That could ever matter more

Little baby in the next room dreaming
Is just icing on the cake
There is nothing like dancing
Our dance of give and take
One step forward
One step sideways
That helpless feeling when the earth shakes

I will always be your lover
Even after our atoms are dispersed
We'll be pushing up daisies
And my crush will just be getting worse
I will follow you into the next life
Like a dog chasing after a hearse

I just don't wanna strive for nothing
Anymore
I just wanna lie here with you
Keep the wolves outside the door
There is nothing in this world
That you could ever show me
That could ever matter more...
Tap to rate this tab
 
# A B C D E F G H I J K L M N O P Q R S T U V W X Y Z