Song name
# A B C D E F G H I J K L M N O P Q R S T U V W X Y Z

Ani Difranco - Unrequited tab

Artist: Ani DiFranco
Song:Unrequited
Album: Reprieve 


Part One:
 
c#|-----0-------0--------------0-----0----0--7------|
F#|--2------1-------3----3--6-----6----6------------|
F |--3------2-------0----0--0-----0----0------------|
C#|-------------------------------------------------|
G#|--0------2--------2----2-------------------------|
C#|-------------------------5-----4----5------------|
 
c#|-----0-----0---------------0-----0----0--7------|
F#|--2-----1-----1--3---3--6-----6----6------------|
F |--3-----2--------0---0--0-----0----0------------|
C#|------------------------------------------------|
G#|--0------------------2--------------------------|
C#|--------2--------2------5-----4----5------------|
 
 
Part Two:
 
c#|------------------------18--18-----18--18-----18--18----------|
F#|--4--4----4--7--7----7--18-----18--18-----18--18------18------|
F |--0----0--0--0----0--0----------------------------------------|
C#|--------------------------------------------------------------|
G#|--------------------------------------------------------------|
C#|--2-------2--9-------9--16---------16---------16--------------|
 
Part Three:
 
c#|------0---------0--------0-------7------0--------0--------0-------|
F#|--10-----10--7-----7--4----4--7--7--10----10--7-----7--4-----4----|
F |--0----------0--------0-------0------0--------0--------0----------|
C#|------------------------------------------------------------------|
G#|------------------------------------------------------------------|
C#|--9----------5--------2-------0--0---9--------5--------2----------|

c#|-----0-------------|
F#|--4-----4--4-------|
F |--0--------0-------|
C#|-------------------|
G#|-------------------|
C#|--2--------2-------|


Order of Parts:

Part One
Part Two
Part One

Part One
Part Two
Part Three 

Part One
Part Two
Part One

Watched this video for help with writing the tab:

http://www.youtube.com/watch?v=SRQagEyMfPI
Tap to rate this tab
# A B C D E F G H I J K L M N O P Q R S T U V W X Y Z