Song name
# A B C D E F G H I J K L M N O P Q R S T U V W X Y Z

Ani Difranco - Alla This tab

Intro and verse
(Listen to the song to get repetition and rhythm)
e---10-10---10---0-0-----0---0--0---0--0---------|
b---10-10---10---0-0-----0---0--0---0--0---------|
g---------------4--4---9-9---2-2----2-2----------|
d---------------5--5---9-9---0-0----0-0----------|
a----------------------------2-2----2-2----------|
e-10------9----3------7-----2------0-------------|

(part where the verse breaks off)
i am many things, made of everything.......
e-2--2---7-7-7-7---7-7-7---------|
b-0--h1--7-7-7-7---7-7-7---------|
g-0--0---------------------------|
d-2--2---------------------------|
a----------------6h7---7---------|
e--------7---6-------------------|

here is the end part
e-7-7-7-7-3-3-2-2-0-0-2-2---------|
b-7-7-7-7-3-3-3-3-3-3-3-3---------|
g---------------------------------|
d---------------------------------|
a---------------------------------|
e-7---6---3-3-3-3-3-3-3-3---------|
Tap to rate this tab
# A B C D E F G H I J K L M N O P Q R S T U V W X Y Z