Song name
# A B C D E F G H I J K L M N O P Q R S T U V W X Y Z

Ani Difranco - 32 Flavors tab

Standard Tuning
Capo: III

e--3---3---3---3-----------------|
b--3---3---3---3-----------------|
g--0---0---0---0-----------------|
d--2---2-------2-----------------|
a--3---2---2---3-----------------|
e----------3---------------------|

the part where she breaks off

e--5-s--3-s--5-s--2--------------|
b--5-s--3-s--5-s--2--------------|
g--0-s--0-s--0-s--0--------------|
d--4-s--2-s--4-s--1--------------|
a--5-s--3-s--5-s--2--------------|
e--------------------------------|

after the break off, go back to the first set of tabs for the rest of the song
Tap to rate this tab
# A B C D E F G H I J K L M N O P Q R S T U V W X Y Z