Song name
# A B C D E F G H I J K L M N O P Q R S T U V W X Y Z

Ani Difranco - Anticipate tab

Tuning: DADF#AD

Intro and Verse:
(Listen to song for tempo and repetition)
d -----0------0----0----0---------|
a -----0------0----0----0---------|
f#-----0------0----0----0---------|
d -9-9---12-12--7-7--9-9----------|
a -9-9---12-12--7-7--9-9----------|
d -9-9---12-12--7-7--9-9----------|

Chorus:
(Listen to song for tempo and repetition)
d ----0----0----0----0------------|
a ----0----0----0----0------------|
f#----0----0----0----0------------|
d -5-5--7-7--2-2--2-2-------------|
a -5-5--7-7--2-2--2-2-------------|
d -5-5--7-7--2-2--2-2-------------|

Part where she breaks off:
if there's anything I've learned.....................................
d --0----0----4-------------------|
a --9----8----5-------------------|
f#--8----8----x-------------------|
d --7----6----5-------------------|
a --0----0----0-------------------|
d --------------------------------|

Back to first and second tab for the rest of the song.
Tap to rate this tab
 
# A B C D E F G H I J K L M N O P Q R S T U V W X Y Z