Song name
# A B C D E F G H I J K L M N O P Q R S T U V W X Y Z

Ani Difranco - Millennium Theature tab

Capo on I

Verse
*Repeat as many times as needed*
e------0----------2-----------|
b----3-3----------2-----------|
g----0-0----------0-----------|
d-----------------------------|
a-----------------------------|
e-s3------2--5-s-2------------|

Pulling coattails from under that little vp, before he gets a chance to.......
e-0-0----3-2-2------0---------|
b-0-0--1-1-3-3---5-5----------|
g---0--0-0-2-2---4-4----------|
d-2-2--2-2---0----------------|
a-2-2-h3-3--------------------|
e-0------------s3-------------|
Tap to rate this tab
# A B C D E F G H I J K L M N O P Q R S T U V W X Y Z