Song name
# A B C D E F G H I J K L M N O P Q R S T U V W X Y Z

Ani Difranco - I Know This Bar tab

Tuning: Standard
Inro and verse:
e---0-3-3-----3s7-7-s5-5-5-5-0--------------------------|
b-3---------------------------0-------------------------|
g-------------------------------------------------------|
d-------------------------------------------------------|
a-3---------------5-s3----------------------------------|
e-----3---3-3-------------------------------------------|

Chorus:'I used to hang out...'
twice then to main riff
e----2----3-3---------------------------------|
b---2-----3-3---------------------------------|
g--0--------0---------------------------------|
d---------------------------------------------|
a-2-------------------------------------------|
e------0-3--3---------------------------------|
Tap to rate this tab
# A B C D E F G H I J K L M N O P Q R S T U V W X Y Z