Song name
# A B C D E F G H I J K L M N O P Q R S T U V W X Y Z

Ani Difranco - Promiscuity tab

Standard

Intro and Verse:
Repeat Twice
e--------------------------------------------------------|
b-------7-7-7--------7-7-7-------7-7-7---------7-7-------|
g-------5-5-5--------5-5-5-------6-6-5---------6-6-------|
d--------------------------0-----------------------0-----|
a-5-5-5---5-5--5-5-5---5-5-------------------------------|
e----------------------------5-5-5--5-5--5-5-5--5-5------|

Play this for 'nature always get her way....'
Also play this for 'how far is too far, how much is enough...'
e--------------------------------------------------------|
b--5-5-5---0-----3-3-3--5-----7-7-7-s10---14-15----------|
g--5-5-----------0-0----6-----7-7-7----------------------|
d------------0---2--------0------------------------------|
a-3------------2-----------------------------------------|
e--------3-------------s5---s7----7----9-s12-12----------|

Play this for 'how you gonna know, who you are.....'
This is also the last riff of the son and end on 'real' with that E7
Repeat Twice
e--------0----------0-------------0-0--0--0---------------|
b-7-3--2--2-2---5-2-2------0----3-3--3-3-3----------------|
g-0-0--0--0---0-0-0-0-0---1--1-1--1-----------------------|
d-----------------------2-2----2--2-----------------------|
a-----------------------2-2----2--2-----------------------|
e-7-3-2---------5-2-----0---------------------------------|
Tap to rate this tab
 
# A B C D E F G H I J K L M N O P Q R S T U V W X Y Z