Song name
# A B C D E F G H I J K L M N O P Q R S T U V W X Y Z

Ani Difranco - November 4 2008 tab

Standard
Intro and Verse
e-----9-9-s10-10-s9-9----------9-9-s10-10-s9-9-----|
b-----8-8--8--8---8-8----------8-8--8--8---8-8-----|
g-----9-9--9--9---9-9----------9-9--9--9---9-9-----|
d-----x------------------------x-------------------|
a-7-7-----------------7-7--7-7-----------------7-7-|
e--------------------------------------------------|

2nd part of verse
e-3-3-3-2-2-2---------------------------|
b-1-1-1-0-0-0---------------------------|
g-0-0-0-0-0-0---------------------------|
d-2-2-2-2-2-2--7-7-7-7-7-7-7-9-9-9-9----|
a-3-3-3-2-2-2--7-7-7-7-7-7-7-9-9-9-9----|
e-------------s5-5-5-5-5-5-5-7-7-7-7----|

The chord she just strums for a while
e-0------|
b-2------|
g-3------|
d-0------|
a-2------|
e-0------|

'Yes we can, yes we can..........................'
e---12-10--7-5--7-h8-p7-7-------|
b---12-10--7-5--8--8--8-8-------|
g-------------------------------|
d-------------------------------|
a---------5--3------------------|
e-12---7-------s7---------------|
Tap to rate this tab
 
# A B C D E F G H I J K L M N O P Q R S T U V W X Y Z